Author/Artist: Everclear
Title: Twistinside
Album: Sparkle and Fade
Transcribed by: Hazzy
Email: [email protected]

This song is terrific!
But nobody has tabbed the guitar part!

Here is the intro:

---6---6----6---6----6---6----6---6-----10-----10----10---10-----10----10-----
-----8--------8-----------------8----------12-----12---------12-----12--------
-0--------0--------0---0----0---------0-----------------0---------------------
------------------------------------------------------------------------------
------------------------------------------------------------------------------
------------------------------------------------------------------------------


This is the verse (beginning part!)

-10---3---5---3---10----------------------------------------------------------
-12---5---7---5---12----------------------------------------------------------
------------------------------------------------------------------------------
------------------------------------------------------------------------------
------------------------------------------------------------------------------
------------------------------------------------------------------------------


These are the chords in the pre-chorus!

------------------------------------------------------------------------------
------------------------------------------------------------------------------
------------------------------------------------------------------------------
-5--7--9--10------------------------------------------------------------------
-5--7--9--10------------------------------------------------------------------
-3--5--7--8-------------------------------------------------------------------
Don't forget to palm-mute, or you will look very silly!

The wonderful chorus:

------------------------------------------------------------------------------
------------------------------------------------------------------------------
----8-----5-------------------------------------------------------------------
-5--8--8--5-------------------------------------------------------------------
-5--6--8--3-------------------------------------------------------------------
-3-----6----------------------------------------------------------------------


This solo is cool, man!
------------------------------------------------------------------------------
------------------------------------------------------------------------------
-0-2-3-5-3-2-3--0-2-3-5-3-2-3--0-2-3--0-2-3--0-2-3-5-3-2-3--------------------
------------------------------------------------------------------------------
------------------------------------------------------------------------------
------------------------------------------------------------------------------


Here is that great outro that the song ends on
--16-14-13-11-10-9------------------------------------------------------------
------------------------------------------------------------------------------
------------------------------------------------------------------------------
------------------------------------------------------------------------------
------------------------------------------------------------------------------
------------------------------------------------------------------------------

Now that wasn't so hard was it? Well, it sort of was for me!
But that's OK...I enjoy contributing to such wonderful places, like Taborama!

Please also check out my accurate (I hope! hehe) tabs
for songs such as: flickerstick- coke, eve-blow ya mind, nirvana- marijuana,
nirvana- polly, ben folds five- brick, and a couple more I think!

Have a ton of fun with this! If you would like to talk about guitars or music (Especially NIRVANA!),
feel free to e-mail me!

LATER!!!

====


Ваше мнение



Капча