Sunshine (That Acid Summer)
Slow Motion Daydream
Lyrics By Art Alexakis
Music By Everclear
Tabbed By JR ([email protected])
~DRUM INTRO~
e-----------------------------
b-----------------------------
g-3-3-3---3-3-3-3-3-3---8-8-8-
d-4-4-4---4-4-4-4-4-4---9-9-9-
a-4-4-4---4-4-4-4-4-4---9-9-9-
e-2-2-2---2-2-2-0-2-2---7-7-7-
Whooo
Go
Whoo
e---------------------------------
b---------------------------------
g---------------------------------
d-3-3-3-3-3-3-3-3-3-3-3-4-4-3-4-3-
a-3-3-3-3-3-3-3-3-3-3-3-3-3-3-3-3-
e---------------------------------
Roll And Tumble With Your Big Heart Falling
Roll And Tumble Alone
Reach Forever With Your Dirty Hands Rolling
Reach For Something You Will Never Know

I heard ya singing in a Taco Bell Bathroom
I heard ya singing a Cheap Trick Song
Yeah We Sing Surrender all the way to County Line
Cause When I
e---------------2~
b-4~------------2~
g-4~------------3~
d-4~------------4~
a-2~------------4~
e---------------2~
Listen To That Music
It Makes Me Think Of Summer Time
(Summer Time)
e---------------------------------
b---------------------------------
g---------------------------------
d-3-3-3-3-3-3-3-3-3-3-3-4-4-3-4-3-
a-3-3-3-3-3-3-3-3-3-3-3-3-3-3-3-3-
e---------------------------------
Yeah That Acid Summer We Were
e---------------2~
b-4~------------2~
g-4~------------3~
d-4~------------4~
a-2~------------4~
e---------------2~
Wasted And Happy
We Where Laughing In The Sunshine

e-----------------------------
b-----------------------------
g-3-3-3---3-3-3-3-3-3---8-8-8-
d-4-4-4---4-4-4-4-4-4---9-9-9-
a-4-4-4---4-4-4-4-4-4---9-9-9-
e-2-2-2---2-2-2-0-2-2---7-7-7-
Twist And Turn With Your Bright Eyes Shining
Twist And Turn In The California Sun
Wait Forever For The Life That You Dream of
e---------------2~
b-4~------------2~
g-4~------------3~
d-4~------------4~
a-2~------------4~
e---------------2~
You wait For Something That Will Never Come
e-----------------------------
b-----------------------------
g-3-3-3---3-3-3-3-3-3---8-8-8-
d-4-4-4---4-4-4-4-4-4---9-9-9-
a-4-4-4---4-4-4-4-4-4---9-9-9-
e-2-2-2---2-2-2-0-2-2---7-7-7-
Twist And Turn In The Slow Motion Daydream
Twist And Turn In Your Own Sweet Hell
I Don’t get So Close To The Fire Anymore
But When I

e---------------2~
b-4~------------2~
g-4~------------3~
d-4~------------4~
a-2~------------4~
e---------------2~
Think About You Now
It makes me think of Summertime
e-----------------------------
b-----------------------------
g-3-3-3---3-3-3-3-3-3---8-8-8-
d-4-4-4---4-4-4-4-4-4---9-9-9-
a-4-4-4---4-4-4-4-4-4---9-9-9-
e-2-2-2---2-2-2-0-2-2---7-7-7-
Yeah That Acid Summer We Were
e---------------2~
b-4~------------2~
g-4~------------3~
d-4~------------4~
a-2~------------4~
e---------------2~
Wasted And Happy
We Were Laughing In The Sunshine
Guitar 1
e-----------------------------
b-----------------------------
g-3-3-3---3-3-3-3-3-3---8-8-8-
d-4-4-4---4-4-4-4-4-4---9-9-9-
a-4-4-4---4-4-4-4-4-4---9-9-9-
e-2-2-2---2-2-2-0-2-2---7-7-7-
Guitar 2
E---------
B---------
g-3h-4-3-3
D---------
A---------
E---------
Laughin in the sunshine
Laughin in the sunshine
In The Sunshine
Guitar 1
E----------------
B----------------
g-3-3-3-3-3-3-3-3
d-3-3-3-3-3-3-3-3
A----------------
E----------------
Guitar 2
E------------------
B------------------
g-15-15-15-15-15-15
D------------------
A------------------
E------------------
Twist And Turn With Your Bright Eyes Shinin
Twist And Turn in The California Sun
Wait forever for the life that you dream of
e---------------2~
b-4~------------2~
g-4~------------3~
d-4~------------4~
a-2~------------4~
e---------------2~
You wait for something that will never come
Guitar 1
E------------
B------------
g-3-3-3-3-3-3
d-4-4-4-4-4-4
a-4-4-4-4-4-4
e-2-2-2-2-2-2
PM……………………………
Guitar 2
E---------------------
B---------------------
g-15-15-15-15-15-15-15
D---------------------
A---------------------
E---------------------
Twist And Turn In The Slow Motion Free Fall
Twist And Turn In Your Own Good Time
I cant watch you twisting And Turning Anymore
Now I

e---------------2~
b-4~------------2~
g-4~------------3~
d-4~------------4~
a-2~------------4~
e---------------2~
Never Thought I Good Time would turn into a life style

Guitar 1
E------------
B------------
g-3-3-3-3-3-3
d-4-4-4-4-4-4
a-4-4-4-4-4-4
e-2-2-2-2-2-2
PM……………………………
Guitar 2
E---------------------
B---------------------
g-15-15-15-15-15-15-15
D---------------------
A---------------------
E---------------------
No I Just Cant Watch You Anymore
But When I

E-----------------
b-4~------------2~
g-4~------------3~
d-4~------------4~
a-2~------------4~
e---------------2~
Think about that Summer Time It Always Seems To Make Me Smile
e-----------------------------
b-----------------------------
g-3-3-3---3-3-3-3-3-3---8-8-8-
d-4-4-4---4-4-4-4-4-4---9-9-9-
a-4-4-4---4-4-4-4-4-4---9-9-9-
e-2-2-2---2-2-2-0-2-2---7-7-7-
Yeah That Acid Summer We Were

E-----------------
b-4~------------2~
g-4~------------3~
d-4~------------4~
a-2~------------4~
e---------------2~
Wasted and happy
We Were Laughing In The Sunshine
Guitar 1
e-----------------------------
b-----------------------------
g-3-3-3---3-3-3-3-3-3---8-8-8-
d-4-4-4---4-4-4-4-4-4---9-9-9-
a-4-4-4---4-4-4-4-4-4---9-9-9-
e-2-2-2---2-2-2-0-2-2---7-7-7-
Guitar 2
E---------
B---------
g-3h-4-3-3
D---------
A---------
E---------
GO Go Go Go
WOOOOOOOOOO
(play during Solo)
We Were Laughing In The Sunshine
Guitar 1
e-----------------------------
b-----------------------------
g-3-3-3---3-3-3-3-3-3---8-8-8-
d-4-4-4---4-4-4-4-4-4---9-9-9-
a-4-4-4---4-4-4-4-4-4---9-9-9-
e-2-2-2---2-2-2-0-2-2---7-7-7-
Guitar 2
E---------
B---------
g-3h-4-3-3
D---------
A---------
E---------
We Were laughing In The Sunshine
E---
B---
g-3~
d-4~
a-4~
e-2~




Ваше мнение



Капча