Song From An American Movie Part 2
Songs From An Amerian Movie Volume 2: Good Time For A Bad Attitude
Words By Art Alexakis
Music By Everclear
e-----15----------
b--------12----15- repeat this for first 20 sec.
g-12--------------

C G C
oooooooo Yeah
Em7 C G
Oh
C Em7 C
oooooo yeah yeah
G C Em7
Some Times I get To A Point Where I don't give a damn about
C G C Em7
Anything Anymore, Sometimes A get to a point where i feel
C
Numb and I just don't care
(start to play intro part along with the chords..)
G C
Em7 C G C
Sometimes I feel like a just don't care
Em7 C
Yeah Sometimes I feel like a just don't
G C
Sit In My Car and Listen To The Radio
Em7 C
I Think about the past and it seems so long ago
G C
I Know The Pain is slowly gonna fade
Em7 C
This Life is gonna get better
G
Things Are Gonna Be Better
C Em7
I wait Until my exwife had gone away I walk around the
C
house gettin lost inside the old days
G C Em
I see picture where everybody's smilin
D C
I know I gotta keep on the inside
Em D C
I wanna get lost from my life sometimes
Em D C
Sit on the side and watch the world go by
Em D G C
I wanna get lost and I don't know why
Em7 C G C
Sometimes I wanna get lost and I don't know why
Em7 C G
Sometimes I wanna get lost and just dream for a
G C
Waitin On My little girl waitin on the school bus
Em7 C
Goin To The Movies Yeah Just The Two Of Us
G C
Sit inside the dark and dream for a while
Em7 C G
Our life is gonna get better Yeah Its gonna get better
C Em7
I wake up wierd in the middle of the night
G
I Walk the floor til my mind gets right
G C Em
I think about the past and it make me wanna cry
D C
I know I gotta keep it on the inside
Em D C
I wanna get lost from my life sometimes
Em D C
Sit on the side and watch the world go by
Em D G
I wanna get lost in the dark and and dream for a while
D
Yeah Just sit inside a dark room and dream for a while
C G D
The Only Thing That Ever Made Scence To Me ooooo
C G D
Is The Words To A Song From An American Movie
C G D
The Only That Ever Made Scence in My Life oooooo
C
Is The Sound of my little girl laughin alive and happy
G C Em
In The Summer Time Woah
C G C Em
Alive and living happy in the summer time Woah
C
Woah GO!
SOLO
Bend here and hold
e-------15---15-15---------------------------------------
b-------15---15-15----------------------------------12---
g-14/-----------14-----------------1412------------12---
d----------------------------------------14----12--------
a--------------------------------------------------------
e--------------------------------------------------------
e -------------------------15-----------------------------
b -----------------15/17--------17-1715---15-15--1513---
g -14--14--14/17------------------------------------------
d --------------------------------------------------------
a --------------------------------------------------------
e --------------------------------------------------------
oooooo yeah
e---------------------------------------------------------
b-1312---12/10---108---87---75---53--3---------------
g-----------------------------------------------0---77777-
d---------------------------------------------------------
a---------------------------------------------------------
e---------------------------------------------------------
C Em D C
I'm just like everyone that I know
Em D C
I am afraid of things That I don't know
Em D G
I am afraid of ever really being alone
D C
Woah Woah Woah Woah
Em D C
Wanna Find Myself a brand new heart
Em D C
I wanna find a girl and make a brand new new start
Em D G
Wanna find a girl and get lost in the dark

I wanna find a girl and lost in the dark
C G D
The Only Thing That Ever Made scene to me oooo
C G
Is The Words To A Song From An American Movie
C G D
The Only Thing That Ever Made Scence in my life
C
Is The Sound of my little girl laughing
G
Through the window of a summer night
D
I Sit Alone In The Backyard wishing I could be inside
C
Just The Sound of my little girl laughing makes me happy
R E S T
Just To Be Alive
Star Playing Intro While Playing:
G D
Woooooooooooooooooah
C G
Sometimes I happy just to be alive
D
Oh Woah
C G
Yeah I'm happy just to be alive
D C G D C
Woah Sometimes I'm happy just to be alive Woah
Em
Woooooooooooooah
(let the Em chord ring out)




Ваше мнение



Капча