Song From An American Movie Part 1
Songs From An American Movie Volume 1: Learning How To Smile
Lyrics by Art Alexakis
Music By Everclear
Guitar 1
e-----15-------15-
b---------12------ repeat through-out song
g--0--------------
Guitar 2
e----10---------10-
b--------12-------- repeat through out song
g--0---------------
Guitar 3
e------------------------------------------------
b---------------------------3--------------------
g---------------------------0-----------0-0-2-2-0
d------------------------------------------------
a----------------------2--------------2----------
e--12------------0/3------------0/3-------------
G D C G
The only thing that ever made scence to me
D C G
Is the words to a song from an american movie
D C G
The only thing that ever made scence in my life
D C
Is the sound of my little girl laughin
G
Through the window of a summer night
D C
I sit alone in the backyard
G
Wishin i could be inside
D C
just the sound of my little girl laughin
R E S T
Makes me happy just to be alive
G
Makes me happy just to be alive
makes me happy just to be alive
makes me happy just to be alive




Ваше мнение



Капча