Sick And Tired
World Of Noise
Lyrics By Art Alexakis
Music By Everclear
(Bass Intro (and continuing under verse))
G|---------------------------------| x4
D|-----0-2-0-----------0-2-0-------|
A|---2-------2-0-2---2-------2-0---|
E|-0---------------0-------------3-|
E D# E
e|----------------------------------|
B|-9~------8-8-8-/9-----------------|
G|-9~------8-8-8-/9-------pick slide----|
D|-9~------8-8-8-/9-----------------|
A|-7~------6-6-6-/7-----------------|
E|----------------------------------|
E D G C
e|----------------------------------| x6
B|----9-9-9-7-7-------------5-5-----|
G|----9-9-9-7-7-------4-4-4-5-5-----|
D|----9-9-9-7-7-------5-5-5-5-5-----|
A|-7--7-7-7-5-5-------5-5-5-3-3-----|
E|-----------------3--3-3-3---------|
(no lyrics first two times)
I break every day, stressed out in every kind of way
I am sick and tired of being sick and tired
All I need and crave, is a loud life with the power to fade
I am living because I keep it all inside
B C G B C F
e|-------------------------------------------------------------------|
B|--4-4-4-4-4-4-4-4-5-5-5-5---------4-4-4-4-4-4-4-4-5-5-5-5----------|
G|--4-4-4-4-4-4-4-4-5-5-5-5-4-4-4-4-4-4-4-4-4-4-4-4-5-5-5-5-2-2-2-2--|
D|--4-4-4-4-4-4-4-4-5-5-5-5-5-5-5-5-4-4-4-4-4-4-4-4-5-5-5-5-3-3-3-3--|
A|--2-2-2-2-2-2-2-2-3-3-3-3-5-5-5-5-2-2-2-2-2-2-2-2-3-3-3-3-3-3-3-3--|
E|--------------------------3-3-3-3-------------------------1-1-1-1--|
pm ................ ...............
Yeah, I keep it all, keep it all inside.
Yeah, I keep it all, I keep it on the inside
E D G C
e|----------------------------------| x6
B|----9-9-9-7-7-------------5-5-----|
G|----9-9-9-7-7-------4-4-4-5-5-----|
D|----9-9-9-7-7-------5-5-5-5-5-----|
A|-7--7-7-7-5-5-------5-5-5-3-3-----|
E|-----------------3--3-3-3---------|
Heeeey
Hey
Love don't work for me. I want women who are out of my reach
I am sick and tired of living all alone
All I need for sure, big love with the power to make more
I am living because I keep it all inside
B C G B C G
e|-------------------------------------------------------------------|
B|--4-4-4-4-4-4-4-4-5-5-5-5---------4-4-4-4-4-4-4-4-5-5-5-5----------|
G|--4-4-4-4-4-4-4-4-5-5-5-5-4-4-4-4-4-4-4-4-4-4-4-4-5-5-5-5-4-4-4-4--|
D|--4-4-4-4-4-4-4-4-5-5-5-5-5-5-5-5-4-4-4-4-4-4-4-4-5-5-5-5-5-5-5-5--|
A|--2-2-2-2-2-2-2-2-3-3-3-3-5-5-5-5-2-2-2-2-2-2-2-2-3-3-3-3-5-5-5-5--|
E|--------------------------3-3-3-3-------------------------3-3-3-3--|
pm ................ ...............
Yeah, I keep it all, keep it all inside.
Yeah, I keep it all, I keep it on the inside
B C G C G Bb F
e|-------------------------------------------------------------------|
B|--4-4-4-4-4-4-4-4-5-5-x-----------5-5-x-----------3-3-3-3----------|
G|--4-4-4-4-4-4-4-4-5-5-x---4-4-x---5-5-x---4-4-4---3-3-3-3-2-2-2-2--|
D|--4-4-4-4-4-4-4-4-5-5-x---5-5-x---5-5-x---5-5-5---3-3-3-3-3-3-3-3--|
A|--2-2-2-2-2-2-2-2-3-3-x---5-5-x---3-3-x---5-5-5---1-1-1-1-3-3-3-3--|
E|--------------------------3-3-x-----------3-3-3-----------1-1-1-1--|
pm ................ .... ....
I know I'm close to the fall. I know I'm dangerous. I'm afraid I'm going down
G|---------------------------------| x2
D|-----0-2-0-----------0-2-0-------|
A|---2-------2-0-2---2-------2-0---|
E|-0---------------0-------------3-|
E D G C
e|----------------------------------| x6
B|----9-9-9-7-7-------------5-5-----|
G|----9-9-9-7-7-------4-4-4-5-5-----|
D|----9-9-9-7-7-------5-5-5-5-5-----|
A|-7--7-7-7-5-5-------5-5-5-3-3-----|
E|-----------------3--3-3-3---------|
Hey
Hey
I blame my family. Their damage is living in me
I am sick inside and tired of my life
All I need I swear is to go out with the power of a nightmare
I am living because I keep it all inside
B C G B C G
e|-------------------------------------------------------------------|
B|--4-4-4-4-4-4-4-4-5-5-5-5---------4-4-4-4-4-4-4-4-5-5-5-5----------|
G|--4-4-4-4-4-4-4-4-5-5-5-5-4-4-4-4-4-4-4-4-4-4-4-4-5-5-5-5-4-4-4-4--|
D|--4-4-4-4-4-4-4-4-5-5-5-5-5-5-5-5-4-4-4-4-4-4-4-4-5-5-5-5-5-5-5-5--|
A|--2-2-2-2-2-2-2-2-3-3-3-3-5-5-5-5-2-2-2-2-2-2-2-2-3-3-3-3-5-5-5-5--|
E|--------------------------3-3-3-3-------------------------3-3-3-3--|
pm ................ ...............
Yeah, I keep it all, keep it all inside.
Yeah, I keep it all, I keep it on the inside
B C G C G Bb F
e|-------------------------------------------------------------------|
B|--4-4-4-4-4-4-4-4-5-5-x-----------5-5-x-----------3-3-3-3----------|
G|--4-4-4-4-4-4-4-4-5-5-x---4-4-x---5-5-x---4-4-4---3-3-3-3-2-2-2-2--|
D|--4-4-4-4-4-4-4-4-5-5-x---5-5-x---5-5-x---5-5-5---3-3-3-3-3-3-3-3--|
A|--2-2-2-2-2-2-2-2-3-3-x---5-5-x---3-3-x---5-5-5---1-1-1-1-3-3-3-3--|
E|--------------------------3-3-x-----------3-3-3-----------1-1-1-1--|
|pm .............. .... .... |
e|-------------------------------------------------------------------|
B|--------------------10b12r10--------10b12r10-----------------------|
G|----------------------------12-11-----------12-11------------------|
D|-------------------------------------------------------------------|
A|-------------------------------------------------------------------|
E|-------------------------------------------------------------------|
I know I'm going to fall. I know I'm dangerous. I know I'm not going down alone
e|---------------------------------| x2
B|---------------------------------|
G|---------------------------------|
D|-----0-2-------------0-2-0-------|
A|---2-------1-0-----2-------1-0---|
E|-0-------------3-0-------------3-|
Yeah
Hey Hey
e|---------------------------------| x2
B|---------------------------------|
G|---------------------------------|
D|-----0-2-------------0-2-0-------|
A|---2-------1-0-----2-------1-0---|
E|-0-------------3-0-------------3-|
| |
e|---------------------------------|
B|-----3-5-------------3-5-3-------|
G|---4-------3-2-0---4-------3-2-0-|
D|-2---------------2---------------|
A|---------------------------------|
E|---------------------------------|
(Solo is played over the verse Riff (E D G C))
E D G C E D G C
e|----------------9b----------------------12-14-14-15-15-17b19-|
B|-10b-8-10b-8-10-------11-10---12-10--------------------------|
G|----------------------------9-------11-----------------------|
D|-------------------------------------------------------------|
A|-------------------------------------------------------------|
E|-------------------------------------------------------------|
B C G B C G
e|-------------------------------------------------------------------|
B|--4-4-4-4-4-4-4-4-5-5-5-5---------4-4-4-4-4-4-4-4-5-5-5-5----------|
G|--4-4-4-4-4-4-4-4-5-5-5-5-4-4-4-4-4-4-4-4-4-4-4-4-5-5-5-5-4-4-4-4--|
D|--4-4-4-4-4-4-4-4-5-5-5-5-5-5-5-5-4-4-4-4-4-4-4-4-5-5-5-5-5-5-5-5--|
A|--2-2-2-2-2-2-2-2-3-3-3-3-5-5-5-5-2-2-2-2-2-2-2-2-3-3-3-3-5-5-5-5--|
E|--------------------------3-3-3-3-------------------------3-3-3-3--|
|pm............... ............... |
e|-------------------------------------------------------------------|
B|-----------------------------------------------10b-10----10-12-14b-|
G|------------------------------------------11h12-------12-----------|
D|-------------------------------------------------------------------|
A|-------------------------------------------------------------------|
E|-------------------------------------------------------------------|
Yeah, I keep it all, keep it all inside.
Yeah, I keep it all, I keep it on the inside
B C G C G Bb F
e|-------------------------------------------------------------------|
B|--4-4-4-4-4-4-4-4-5-5-x-----------5-5-x-----------3-3-3-3----------|
G|--4-4-4-4-4-4-4-4-5-5-x---4-4-x---5-5-x---4-4-4---3-3-3-3-2-2-2-2--|
D|--4-4-4-4-4-4-4-4-5-5-x---5-5-x---5-5-x---5-5-5---3-3-3-3-3-3-3-3--|
A|--2-2-2-2-2-2-2-2-3-3-x---5-5-x---3-3-x---5-5-5---1-1-1-1-3-3-3-3--|
E|--------------------------3-3-x-----------3-3-3-----------1-1-1-1--|
|pm .............. .... .... |
e|-------------------------------------------------------------------|
B|---------------------8b9r8-7---------8b9r8-7-----------------------|
G|-------------------------------------------------------------------|
D|-------------------------------------------------------------------|
A|-------------------------------------------------------------------|
E|-------------------------------------------------------------------|
I know I'm close to the fall. I know I'm dangerous. I know I'm not going down alone
e|---------------------------------| x4
B|---------------------------------|
G|---------------------------------|
D|-----0-2-------------0-2-0-------|
A|---2-------1-0-----2-------1-0---|
E|-0-------------3-0-------------3-|
I'm not going down alone
I know, I'm not going down alone
I know, I'm not going down alone
I know,
(Bass coda)
G|---------------------------------|
D|-----0-2-0-----------0-2-0-------|
A|---2-------2-0-2---2-------2-0---|
E|-0---------------0-------------3-|
E
G|---------------------------------|
D|-----0-2-0-----------0-2-0-------|
A|---2-------2-0-2---2-------2-0---|
E|-0---------------0-------------3-|
| |
e|-0-------------------------------|
B|-0-----------------------0-------|
G|-1-------------------------------|
D|-2-------------------------------|
A|-2-------------------------------|
E|-0-------------------------------|
G|---------------------------------| x2
D|-----0-2-0-----------0-2-0-------|
A|---2-------2-0-2---2-------2-0---|
E|-0---------------0-------------3-|
G|-------------------------------------------|
D|-----0-2-0------------0-2--0---------------|
A|---2-------2-0-2---2----------2---0--------|
E|-0---------------0-------------------3--0~-|
End with another E chord




Ваше мнение



Капча