Everclear
Santa Monica
Sparkle And Fade
Lyrics By Art Alexakis
Music By Everclear
Tabbed By JR ([email protected])
INTRO
e-------------------------------------------------------3
b-------------------------------------------------------3
g-------------------------------------------------------4
d-5-5---5-5-5-5-5-5-X-X-X-X-5-5-5-5-5-5-X-X-X-X-5-5-5-5-5
a-5-5---5-5-5-5-5-5-X-X-X-X-5-5-5-5-5-5-X-X-X-X-5-5-5-5-5
e-3-3---3-3-0-0-3-3-X-X-X-X-3-3-0-0-3-3-X-X-X-X-3-3-0-0-3
(NO MUSIC)
I am still living with your
e---------------------------------------------
b---------------------------------------------
g---------------------------------------------
d-5-5--5-5-5-5-5-5-X-X-X-X-5-5-5-5-5-5-X-X-X-X
a-5-5--5-5-5-5-5-5-X-X-X-X-5-5-5-5-5-5-X-X-X-X
e-3-3--3-3-0-0-3-3-X-X-X-X-3-3-0-0-3-3-X-X-X-X
Ghost
Lonley And Dreaming Of The West Coast
I Dont Wanna Be Your
e----------------------------------------
b-7-7-X-X-X-X-7-7-9-9-5-5-X-X-X-X-5-5-7-7
g-7-7-X-X-X-X-7-7-9-9-5-5-X-X-X-X-5-5-7-7
d-7-7-X-X-X-X-7-7-9-9-5-5-X-X-X-X-5-5-7-7
a-5-5-X-X-X-X-5-5-7-7-3-3-X-X-X-X-3-3-5-5
e----------------------------------------
Down Time
I dont wanna be your
e--------------3
b--------------3
g--------------4
d-5-5--5-5-5-5-5
a-5-5--5-5-5-5-5
e-3-3--3-3-0-0-3
Stupid Game
(NO MUSIC)
With My Big Black
e-3-----------------------------
b--3----------------------------
g---4---------------------------
d----5---5-5-X-X-X-X-5-5-5-5-5-5
a--------5-5-X-X-X-X-5-5-5-5-5-5
e--------3-3-X-X-X-X-3-3-0-0-3-3
Boots And An' Old Suit Case
I do believe I'll find myself a new place
I dont wanna be the
e----------------------------------------------------------------
b-7-7-X-X-X-X-7-7-9-9-5-5-X-X-X-X-5-5-7-7------------------------
g-7-7-X-X-X-X-7-7-9-9-5-5-X-X-X-X-5-5-7-7------------------------
d-7-7-X-X-X-X-7-7-9-9-5-5-X-X-X-X-5-5-7-7-5-5-X-X-X-X-5-5-5-5-5-5
a-5-5-X-X-X-X-5-5-7-7-3-3-X-X-X-X-3-3-5-5-5-5-X-X-X-X-5-5-5-5-5-5
e-----------------------------------------3-3-X-X-X-X-3-3-0-0-3-3
Bad Guy
I dont wanna do your sleep walk dance anymore
I just wanna see some palm trees
I'll go away and try to shake your disease
(NO MUSIC)
We Can Live Beside The
e-------------------------------------------------------------
b-5-5-X-X-X-X-5-5-7-7------------------9-9-7-7-X-X-X-X-7-7-5-5
g-5-5-X-X-X-X-5-5-7-7------------------9-9-7-7-X-X-X-X-7-7-5-5
d-5-5-X-X-X-X-5-5-7-7--5-5-X-X-X-X-5-5-9-9-7-7-X-X-X-X-7-7-5-5
a-3-3-X-X-X-X-3-3-5-5--5-5-X-X-X-X-5-5-7-7-5-5-X-X-X-X-5-5-3-3
e----------------------3-3-X-X-X-X-3-3------------------------
ocean and leave the fire behind
swim out past the breakers
and watch the world die
e-------------------
b-------------------
g-------------------
d-5-5-5-5-5-5-X-X--X
a-5-5-5-5-5-5-X-X--X
e-3-3-0-0-3-3-X-X--X
We can live beside the
e-------------------------------------------------------------
b-5-5-X-X-X-X-5-5-7-7------------------9-9-7-7-X-X-X-X-7-7-5-5
g-5-5-X-X-X-X-5-5-7-7------------------9-9-7-7-X-X-X-X-7-7-5-5
d-5-5-X-X-X-X-5-5-7-7--5-5-X-X-X-X-5-5-9-9-7-7-X-X-X-X-7-7-5-5
a-3-3-X-X-X-X-3-3-5-5--5-5-X-X-X-X-5-5-7-7-5-5-X-X-X-X-5-5-3-3
e----------------------3-3-X-X-X-X-3-3------------------------
ocean and leave the fire behind
swim out past the breakers
and watch the world die
e-------------------------
b-------------------------
g-4-4-X-X-X-X-4-4-4-4-4-4-
d-5-5-X-X-X-X-5-5-5-5-5-5-
a-5-5-X-X-X-X-5-5-5-5-5-5-
e-3-3-X-X-X-X-3-3-0-0-3-3-
Yeah Watch The World Die
(NO MUSIC)
I Am Still Dreaming Of Your
e-------------------------
b-------------------------
g-4-4--4-4-0-0-4-4-X-X-X-X
d-5-5--5-5-0-0-5-5-X-X-X-X
a-5-5--5-5-5-0-5-5-X-X-X-X
e-3-3--3-3-0-0-3-3-X-X-X-X
Face
Hungry And Hollow From All Things You Took Away
I dont wanna be your
e----------------------------------------------------------------
b-7-7-X-X-X-X-7-7-9-9-5-5-X-X-X-X-5-5-7-7------------------------
g-7-7-X-X-X-X-7-7-9-9-5-5-X-X-X-X-5-5-7-7------------------------
d-7-7-X-X-X-X-7-7-9-9-5-5-X-X-X-X-5-5-7-7-5-5-X-X-X-X-5-5-5-5-5-5
a-5-5-X-X-X-X-5-5-7-7-3-3-X-X-X-X-3-3-5-5-5-5-X-X-X-X-5-5-5-5-5-5
e-----------------------------------------3-3-X-X-X-X-3-3-0-0-3-3
Good Time
I dont Wanna be your fall back crutch anymore
Walk Right Up Into A Brand New Day
e-------------------------
b-------------------------
g-4-4--4-4-0-0-4-4-X-X-X-X
d-5-5--5-5-0-0-5-5-X-X-X-X
a-5-5--5-5-5-0-5-5-X-X-X-X
e-3-3--3-3-0-0-3-3-X-X-X-X
Insane and Rising In My Own Wierd Way
I dont wanna be the
e----------------------------------------------------------------
b-7-7-X-X-X-X-7-7-9-9-5-5-X-X-X-X-5-5-7-7------------------------
g-7-7-X-X-X-X-7-7-9-9-5-5-X-X-X-X-5-5-7-7------------------------
d-7-7-X-X-X-X-7-7-9-9-5-5-X-X-X-X-5-5-7-7-5-5-X-X-X-X-5-5-5-5-5-5
a-5-5-X-X-X-X-5-5-7-7-3-3-X-X-X-X-3-3-5-5-5-5-X-X-X-X-5-5-5-5-5-5
e-----------------------------------------3-3-X-X-X-X-3-3-0-0-3-3
Bad Guy I Just Wanna Find Some Place To Be ALone
(NO MUSIC)
We Can Live Beside The
e-------------------------------------------------------------
b-5-5-X-X-X-X-5-5-7-7------------------9-9-7-7-X-X-X-X-7-7-5-5
g-5-5-X-X-X-X-5-5-7-7------------------9-9-7-7-X-X-X-X-7-7-5-5
d-5-5-X-X-X-X-5-5-7-7--5-5-X-X-X-X-5-5-9-9-7-7-X-X-X-X-7-7-5-5
a-3-3-X-X-X-X-3-3-5-5--5-5-X-X-X-X-5-5-7-7-5-5-X-X-X-X-5-5-3-3
e----------------------3-3-X-X-X-X-3-3------------------------
ocean and leave the fire behind
swim out past the breakers
and watch the world die
e-------------------
b-------------------
g-------------------
d-5-5-5-5-5-5-X-X--X
a-5-5-5-5-5-5-X-X--X
e-3-3-0-0-3-3-X-X--X
We can live beside the
e-------------------------------------------------------------
b-5-5-X-X-X-X-5-5-7-7------------------9-9-7-7-X-X-X-X-7-7-5-5
g-5-5-X-X-X-X-5-5-7-7------------------9-9-7-7-X-X-X-X-7-7-5-5
d-5-5-X-X-X-X-5-5-7-7--5-5-X-X-X-X-5-5-9-9-7-7-X-X-X-X-7-7-5-5
a-3-3-X-X-X-X-3-3-5-5--5-5-X-X-X-X-5-5-7-7-5-5-X-X-X-X-5-5-3-3
e----------------------3-3-X-X-X-X-3-3------------------------
ocean and leave the fire behind
swim out past the breakers
and watch the world die
e-12-12-12-12-12-12-12-12-12-12-12-12-12
b-X--X--X--X--X--X--X--X--X--X--X--X--X-
g-15-15-15-15-15-15-15-15-15-15-15-15-15
d---------------------------------------
a---------------------------------------
e---------------------------------------
We Can Live Beside The Ocean
And Leave The Fire Behind
Swim out Past The Breakers
And Watch The World Die
e----------------------
b----------------------
g-------12------------
d-5-5-------5-5-5-5-5-5
a-5-5-------5-5-5-5-5-5
e-3-3-------3-3-0-0-3-3
Watch The World Die
Yeah Watch The World Die
Woah Yeah Watch The World Die
e---
b---
g---
d-4~
a-5~
e-3~




Ваше мнение



Капча