Queen Of The Air
Sparkle And Fade
Lyrics by Art Alexakis
Music By Everclear

e|--------------------------------------------------------|
B|--------------------------------------------------------|
G|--9---9/119---8----8/11----119----9----9/11---116/8--|
D|--------------------------------------------------------|
A|--7---7/97---6----6/9------97----7----7/9-----94/6--|
E|--0---0--------0----0--------0------0-----0------0------|
e|---------------------|
B|---------------------|
G|----86----64----4--|
D|---------------------|
A|----64----42----2--|
E|----0------0------0--|
Chorus 1:
e|----4---------5---------0---------2-----4---------5------|
B|------4---------5---------0---------2-----4---------5-0--|
G|--5-----5---6-----0---1-----1---3-----5-----5---6--------|
D|---------------------------------------------------------|
A|---------------------------------------------------------|
E|---------------------------------------------------------|
e|----0-|
B|----0-|
G|---8--|
D|---6--|
A|---7--|
E|------|
Verse 2:
same as Verse 1, but just a bit more jazzy.
Chorus 2:
e|-----------------------------------------|
B|-----------------------------------------|
G|-----------------------------------------|
D|-4-4-4-4-5-5-5-5-0-0-0-0-2-2-2-2-4-4-4-4-|
A|----------7------------------------------|
E|-5-5-5-5-0-0-0-0-0-0-0-0-4-4-4-4-5-5-5-5-|
enter heavy distortion
e|------------------------------------------|
B|------------------------------------------|
G|-----------------6-6-6-6-2-2-2-2-1--------|
D|-----------------7-7-7-7-3-3-3-3-2--------|
A|------------X7-7-7-7-3-3-3-3-2--------|
E|-0-0-0-0-2-2-2-2-5-5-5-5-1-1-1-1-0-12-|




Ваше мнение



Капча