============================
Put your lights on
Santana w/Everlast
Tabbed Jeff Pineau
[email protected]
===========================

Intro

G|---------|-----------------------------------------------------------------------------------------------------
D|-No bass-|------------------------------------------------------------------------------------------------------------
A|-8-bars--|---------------------------------------------------------------------------------------------------------
E|---------|-----------------------------------------------------------------------------------------------------

1st verse 1st time 2nd time

G|------------------------------------------------|----------------------------------|----------------------------|
D|*-----------------------------------------------|-------------------2-------------*|----------------------------|
A|*--0-------3----------5-------------------------|---------------------------------*|----------------------------|
E|-------------------------3-----3--------0----1--|----1----0----0----------0------3-|-1---1-1-1---X-0-0-0--0-3-0-|

G|------------------------------------------------------------------------------------------------------------|
D|*----------------------------------------------------------------------------------------------------------*|
A|*----------------------------3---3------3----3--3-3--3--5--------------------------------------------------*|
E|--5---0-5----3-5-3-5--5--5------------3---3----------------3---3---0-3-0-3--3---0--1--1-1--0-0-0--0-0-3--0--|

Chorus 1st 3 times

G|---------------------------------------------------------------------------------------|----------------------------------|
D|-------------------------------2------2------------------------------------------------|--------------0h2-2-2-2----------*|
A|-----------------------2-3---------------------------------------------------------3---|---------------------------------*|
E|-5--0-5----3-5-3-5--5-------0------0------0--0--0--0--3---0--5--5-5----0-5--5-5-5-----5|-0--0-0---0-0------------0-3-3-0--|

THen play this...

G|--------------------------------|
D|--------------------------------|
A|-------5h7-7-7-7----------------|
E|-0--0-------------0-0-0-0-3---0-|

Guitar Solo 1st 3 times 4th time

G|-------------------|---------------------------|----------------------------------------------------------------|
D|*------------------|--------------------------*|----------------------------------------------------------------|
A|*--3-3---3---4-4---|--------------------------*|----------------------------7-------7-7-------------------------|
E|-------------------|---3-3-3----1-1-1---0-0-0--|--3--3-3-3---3---1-1-1---0-------0--------0--1-1-1----0-0----0--|

Breakdown, no bass for 7 bars
then...

G|------------------------------|
D|-----3------------------------|
A|------------------------------|
E|-1--------1----0--0--0-0-3-0--|

2nd Verse

G|-----------------------------------------------------------------------------------------------------------------|
D|--------------------------------------------------------------------------------------3-------------------------*|
A|--------------------------------3--3-3-----3---3-3--------------------------------------------------------------*|
E|--5---5----3-5-3-5-5-5-----5-------------3---3-----0-0-1-2-3--3-3--X-3-0-3--3---3--1------1--0-0-0-X-0--0-3-3-0--|

Chorus

G|--------------------------------------------------------------------|
D|*------------------------------------------------------------------*|
A|*------------------------------------------------/5-7-7-7-7--------*|
E|---5--5-3-5----3-5-3-5-5-5----7--0--0-0-0------0--------------0--3--|

Outro 1st time

G|-------------------------------------------------------------------------|--------------------------------|
D|*------------------------------------------------------------------------|-------------------------------*|
A|*------------------------0--3--3-3----3--3-3-----------------------------|--------------/7-7-------------*|
E|---5---5-5---3-5---5-5--------------3---------0-1-2--3--3-3--0-3--3-3---X|--1-1--1----0-------0--0-3-3-0--|

2nd time

G|-----------------------------------------------------------------------------
D|-------3---------------------------------------------------------------------
A|-----3-----6-7-7-------------------------------------------------------------
E|-1----------------0-0--0--3-0---------------------------5---------------5----




Ваше мнение



Капча