Date: Sun, 11 Feb 96 09:26 PST
From: Matt Cook
Subject: TAB Pale Green Stars by Everclear
Heres a better copy, I used a different mail program e-mail me at
[email protected] if you have anything else for me to do.
-Matt Cook
Pale Green Stars
By Everclear
Transcribed by Matt Cook
Chord1 Chord2 Chord3
|---------|----------|----------|
|---------|----------|----------|
|-----7---|-----6----|------5---|
|-----5---|-----5----|------5---|
|---------|----------|----------|
|---------|----------|----------|
Chord4 G C
----------|-----3----|-----3----|
----------|-----3----|-----5----|
----4-----|-----4----|-----5----|
----5-----|-----5----|-----5----|
----------|-----5----|-----3----|
----------|-----3----|-----3----|
Riff #1
---------------------------------------------|
---------------------------------------------|
---------------------------------5----5----5-|
5----5----5--------------0----5----5----5----|
5----5----5---------2---------3----3----3----|
3----3----3----3--------------3----3----3----|
|---------------------------------------|
|---------------------------------------|
|---------------------------------------|
|----2p0---------0----5----5--5---------|
|-----------3-----------5----5---5------|
|------------------------3----3---3-----|
|----------------------------------|--------|
|----------------------------------|--------|
|-------------------5----5----5----|----5/--|
|--------------0----5----5----5----|----5---|
|---------2---------3----3----3----|----3---|
|----3--------------3----3----3----|----3/--|
Riff #2 (watch the rythym)
|--------------0--------------------------|
|----------------------------------4------|
|-------------------0---------0-----------|
|------------------------1----------------|
|----0----4-------------------------------|
|-----------------------------------------|
|-----------------------------------------|
|-----3----0------------------------------|
|---------------0---------0---------0-----|
|0-------------------1---------0----------|
|-----------------------------------------|
|-----------------------------------------|
It starts out
Chord 1
1 2
Amanda is in love with the
1
site of the moon
1 2
Shes got pale green
3 4
stars in her room
Right above her bed
Repeat that pattern:
Listen to the song to get the big picture
Put them on the ceiling
Leave on the light
When the sun goes down
Then the stars might shine
Shining in the dark
Riff #1
Skinny little girl in her room alone
Shes got hell to spare in her home
If you can call it a home
Doesn't want to be like anybody else
When no one os around
She talks to herself
I can here her in the night
G G G GG C C C
Hey --- hey yeah
Its hard on a girl
When the blood won't come
When it ought to come
It's hard on a girl
When you try to walk around
On the shaking ground
play riff 2 over this part
Hey Hey daddy's going away
Scared little girl
Watchin' Alladdin on TV
Amanda always cries
When you yell at me
Yeah----Please don't yell at me
Climb up all the stairs
Close the door
Doesn't want to hear
Us fightin' any more
Yeah I'd better call it a day
Hey---hey yeah
Solo:
x5
|--3--3--3----|-/5--5/7--8--7--8--7--|
|-------------|----------------------|
|-------------|----------------------|
|-------------|----------------------|
|-------------|----------------------|
|-------------|----------------------|
2x
|-----------------------------|
|-----------------------------|
|-/4--4--4--4--6--7---9-------|
|-----------------------------|
|-----------------------------|
|-----------------------------|
full
-------------------------------------|
-------------------------------------|
4-----4--4--5--4--2--2-~~~-----------|
-------------------------------------|
-------------------------------------|
-------------------------------------|
Sorry this isn't very detailed.
Listen to the song to get the
rythym and changes right.
Questions




Ваше мнение



Капча