New Blue Champion
Slow Motion Daydream
Lyrics By Art Alexakis
Music By Everclear
Tabbed By JR ([email protected])

Guitar 1 (electric)
e------4----------6------------9
b--------4---------6---------9--
g---5--------7-----------10-----
d-6--------8----------11--------
a-------------------------------
e-------------------------------
Guitar 2 (acoustic)
e-4-4---4-2-2-2-------------------
b-4-4---4-2-2-2---4-4--4-4-4-4-6-6
g-5-5---5-3-3-3---4-4--4-4-4-4-6-6
d-6-6---6-4-4-4---4-4--4-4-4-4-6-6
a-6-6---6-4-4-4---2-2--2-2-2-2-4-4
e-4-4---4-2-2-2-------------------
I dont Wanna Hear You Say Your Sorry
I dont wanna hear you say we can start all over again
I know you must think that im stupid
Well I might be stupid for the rest of my life
But I’ll never be stupid for you again
I Just Want It All To Go Away

Electric Only
e----------------------------------------------------------------
b----------------------------------------------------------------
g-5-5-5-5-5-5-5--3-3-3-3-3-3--8-8-8-8-8-8-8-10-10-10-10-10-10-10-
d-6-6-6-6-6-6-6--4-4-4-4-4-4--9-9-9-9-9-9-9-11-11-11-11-11-11-11-
a-6-6-6-6-6-6-6--4-4-4-4-4-4--9-9-9-9-9-9-9-11-11-11-11-11-11-11-
e-4-4-4-4-4-4-4--2-2-2-2-2-2--7-7-7-7-7-7-7-9--9--9--9--9--9--9--
Yeah
Just go away
Yeah
e----------------------------------------------------------------
b----------------------------------------------------------------
g-5-5-5-5-5-5-5--3-3-3-3-3-3--8-8-8-8-8-8-8-10-10-10-10-10-10-10-
d-6-6-6-6-6-6-6--4-4-4-4-4-4--9-9-9-9-9-9-9-11-11-11-11-11-11-11-
a-6-6-6-6-6-6-6--4-4-4-4-4-4--9-9-9-9-9-9-9-11-11-11-11-11-11-11-
e-4-4-4-4-4-4-4--2-2-2-2-2-2--7-7-7-7-7-7-7-9--9--9--9--9--9--9--
I can see the light above me
I hear the sound of a brand song
I don’t wanna hear your preaches cause I know whats right
I know whats wrong
I can see the light above me
I hear the sound of a brand new day
I can picture the lies without you
And I don’t think things Are Ever gonna change
I Just Want It All To Go Away
Guitar 1 (electric)
e------4----------6------------9
b--------4---------6---------9--
g---5--------7-----------10-----
d-6--------8----------11--------
a-------------------------------
e-------------------------------
Guitar 2 (acoustic)
e-4-4---4-2-2-2-------------------
b-4-4---4-2-2-2---4-4--4-4-4-4-6-6
g-5-5---5-3-3-3---4-4--4-4-4-4-6-6
d-6-6---6-4-4-4---4-4--4-4-4-4-6-6
a-6-6---6-4-4-4---2-2--2-2-2-2-4-4
e-4-4---4-2-2-2-------------------
I don’t wanna hear about you damage
I don’t wanna hear you say
That you think Im damaged too
Becuause I Know You Know that
The damage in me is from the horrible things you say and do
I know that the damage in me
Comes from the damage in you
(no music)
I just want it all to go away
e----------------------------------------------------------------
b----------------------------------------------------------------
g-5-5-5-5-5-5-5--3-3-3-3-3-3--8-8-8-8-8-8-8-10-10-10-10-10-10-10-
d-6-6-6-6-6-6-6--4-4-4-4-4-4--9-9-9-9-9-9-9-11-11-11-11-11-11-11-
a-6-6-6-6-6-6-6--4-4-4-4-4-4--9-9-9-9-9-9-9-11-11-11-11-11-11-11-
e-4-4-4-4-4-4-4--2-2-2-2-2-2--7-7-7-7-7-7-7-9--9--9--9--9--9--9--
I can see the light above me
I hear the sound of a brand new song
I d
e----------------------------------------------------------------
b----------------------------------------------------------------
g-5-5-5-5-5-5-5--3-3-3-3-3-3--8-8-8-8-8-8-8-10-10-10-10-10-10-10-
d-6-6-6-6-6-6-6--4-4-4-4-4-4--9-9-9-9-9-9-9-11-11-11-11-11-11-11-
a-6-6-6-6-6-6-6--4-4-4-4-4-4--9-9-9-9-9-9-9-11-11-11-11-11-11-11-
e-4-4-4-4-4-4-4--2-2-2-2-2-2--7-7-7-7-7-7-7-9--9--9--9--9--9--9--
Yeah
Just go away
Yeah
I dont wanna talk about it
I dont wanna hear your lies
I dont wanna talk about it
And I dont understand Why You just do no realize
E-----------------
B-----------------
g-13-11-10-8-5-6-4
D-----------------
A-----------------
E-----------------
Guitar 1 (electric)
e------4----------6------------9
b--------4---------6---------9--
g---5--------7-----------10-----
d-6--------8----------11--------
a-------------------------------
e-------------------------------
Guitar 2 (acoustic)
e-4-4---4-2-2-2-------------------
b-4-4---4-2-2-2---4-4--4-4-4-4-6-6
g-5-5---5-3-3-3---4-4--4-4-4-4-6-6
d-6-6---6-4-4-4---4-4--4-4-4-4-6-6
a-6-6---6-4-4-4---2-2--2-2-2-2-4-4
e-4-4---4-2-2-2-------------------
I dont Wanna Hear You Say Your Sorry
I dont wanna hear you say we can start all over again
Woah Oh Woah GO
e----------------------------------------------------------------
b----------------------------------------------------------------
g-5-5-5-5-5-5-5--3-3-3-3-3-3--8-8-8-8-8-8-8-10-10-10-10-10-10-10-
d-6-6-6-6-6-6-6--4-4-4-4-4-4--9-9-9-9-9-9-9-11-11-11-11-11-11-11-
a-6-6-6-6-6-6-6--4-4-4-4-4-4--9-9-9-9-9-9-9-11-11-11-11-11-11-11-
e-4-4-4-4-4-4-4--2-2-2-2-2-2--7-7-7-7-7-7-7-9--9--9--9--9--9--9--
I can see the light above me
I hear the sound of a brand song
I don’t wanna hear your preaches cause I know whats right
I know whats wrong
I can see the light above me
I hear the sound of a brand new day
I can picture the lies without you
And I don’t think things Are Ever gonna change
I Just Want It All To Go Away
Guitar 2 (acoustic)
e-4-4---4-2-2-2-------------------
b-4-4---4-2-2-2---4-4--4-4-4-4-6-6
g-5-5---5-3-3-3---4-4--4-4-4-4-6-6
d-6-6---6-4-4-4---4-4--4-4-4-4-6-6
a-6-6---6-4-4-4---2-2--2-2-2-2-4-4
e-4-4---4-2-2-2-------------------
I Can see the light above me
I hear the sound of brand new song
I don’t wanna hear your reasons
Cause I know whats rigt
I know whats wrong




Ваше мнение



Капча