t. See http://www.olga.net/faq/ for more information. #
From: [email protected]
Date: Sun, 20 Feb 2000 17:53:27 EST
Subject: e/everclear/my_sexual_life.tab
Everclear: My Sexual Life
Album: Sparkle and Fade
Track: 14
Art Alexakis: Vocals, Guitar
Craig Montoya: Bass, Vocals
Greg Eklund: Drums, Vocals
The main part of the song only uses 2 chords with slight variations.
e: ----9-999--9-10-10--9-7-------7-777-7-9-9-7-5-------
B: ----7-777--7--7--7--7-7-------5-555-5-5-5-5-5-------
G: ----7-777--7--7--7--7-7-------6-666-6-6-6-6-6-------
D: --0----------------------------------------------------
A: ---------------------------0-0-------------------------
E: --------------------------------------------------------
Repeat that for the entire verse
Chorus chords:
G A D B Gm F# E
e: ------------2--------------------
B: ------------3----3---------------
G: --4----6----2----4----3----2----1
D: --5----7----0----4----5----4----2
A: --5----7---------2----5----4----2
E: --3----5--------------3----2----0
Verses...
Chorus
verse
chorus
G A D B
No, no, no, no, no, no, no, no, no, no, no, no, no, no, no, no, no, no,no,no,no
Gm F# E D
I can't hide my sexual life
Yeah, yeah
Chorus
Outro:
G: --2-5-7-9-7-12-11---4-5-7-5-4-5
- The above work was my own, I listened to the cd and thats what I think.
If you have any questions you can email me at [email protected] Later.




Ваше мнение



Капча