Misery Whip
By Everclear
Tabbed By JR
ALL STRINGS TUNED DOWN A HALF STEP
Intro-
Am G D
Verse 1 (Accousitc)
Eb--------------3-3-3
Bb--------------3-3-3
Gb--------------2-2-2
Db----0-0-------0-0-0
Ab-3-------3b-0------
Eb-------------------
Chorus 1 (Clean Electric)

D F A G
Eb------2----------1---------2-----3----
Bb--------3----------1---------2-----3--
Gb---2---------2-----------------------0
Db-0---------3------------2-------------
Ab----------------------0---------------
Eb-------------------------------3------
Eb-----2-----------1----0-0-X-X-X-X-0-0-----
Bb--------3----------1--2-2-X-X-X-X-2-2-----
Gb---2---------2--------2-2-X-X-X-X-2-2-----
Db-0---------3----------2-2-X-X-X-X-2-2-----
Ab----------------------0-0-X-X-X-X-0-0-3b-0
Eb-------------------------------------------
Then repeat the first line
Second Verse (Distorted)
Eb-----3-3-3-------------3-3-3
Bb-----3-3-3-------------3-3-3
Gb-----2-2-2-------------2-2-2
Db-----0-0-0----0-0------0-0-0
Ab-3-0--------3-----3b-0------
Eb----------------------------
Second Chrous (Distorted)
D
There Is A Place
F A
Where We Can Leave Behind
G
All Those Simple Minds
D F A
They Would not like the way we live
D
When We Are All Alone
F
In This House That We Call Home
A G
You Will Become My Misery Whip
Interlude
Eb-3-3-3-3---3-3-3-3---3-3-3-3--------------
Bb-3-3-3-3---3-3-3-3---3-3-3-3--------------
Gb-2-2-2-2---2-2-2-2---0-0-0-0--------------
Db-0-0-0-0---0-0-0-0---0-0-0-0----0-0-------
Ab---------0---------0----------3-----3b--0-
Eb------------------------------------------
Interlude Number 2
Eb---------------------------------------------------------
Bb---------------------------------------------------------
Gb---------------------------------------------------------
Db-2-0-----------------0-----------0------------0----------
Ab----3-0-3b-0-----0-3----3---0--3-----------3-------------
Eb-------------------------------------3---3---------1---0-
Then Just Play The Chorus Then The Interlude




Ваше мнение



Капча