From [email protected] Sun May 4 09:41:38 1997
Date: Sat, 26 Apr 1997 08:45:29 +1000
From: Alan Herlihy
To: [email protected]
Subject: TAB: Local God by Everclear
Local God - Everclear
Romeo & Juliet Soundtrack Vol 1 (I think?)
Roughly transcribed by me, Alan Herlihy ([email protected])
Timing not shown properly, the timing is hard to get at first but once
you get the hang of it it's pretty easy.
intro/outro
-----------
e|-1/2-2--2-5--2-
B|-3/4-4--4-4--4-
G|-3/4-4--4-4--4-
D|-3/4-4--4-4--4-
A|-1/2-2--2-2--2-
E|-1/2-2--2-2--2-
Verse
-----
e|-2-2--4-5--6--2-2--4-5--6--2-2--4-5--6--5-5-5-5
B|-4-4--4-4--5--4-4--4-4--5--4-4--4-4--5--4-4-4-4
G|-4-4--4-4--5--4-4--4-4--5--4-4--4-4--5--4-4-4-4
D|-4-4--4-4--5--4-4--4-4--5--4-4--4-4--5---------
A|-2-2--2-2--3--2-2--2-2--3--2-2--2-2--3---------
E|-2-2--2-2--3--2-2--2-2--3--2-2--2-2--3---------
|------|
unsure
Sort of quiet "I feel just like a local god etc." bit
-----------------------------------------------------
(First time through it's just bass playing)
e|----------------------------
B|----------------------------
G|-4-4-4-4--5-5---------------
D|-4-4-4-4--5-5--5-5-5-5--4-4-
A|-2-2-2-2--3-3--5-5-5-5--4-4-
E|---------------3-3-3-3--2-2-
Bridge
------
e|---------------------------------------------------------------------
B|---------------------------------------------------------------------
G|---------------------------------------------------------------------
D|-2-2-2-2-2-2-2-2-2-2-2-2-2-2-2-2-2-2-5-5-5-5-5-5-5-5-5-5-5-5-6---5---
A|-2-2-2-2-2-2-2-2-2-2-2-2-2-2-2-2-2-2-5-5-5-5-5-5-5-5-5-5-5-5-6---5---
E|-0-0-0-0-0-0-0-0-0-0-0-0-0-0-0-0-0-0-3-3-3-3-3-3-3-3-3-3-3-3-4---3---
|-----|
unsure?
e|------------------------------------------------------------
B|------------------------------------------------------------
G|------------------------------------------------------------
D|-2-2-2-2-2-2-2-2-2-2-2-2-2-2-2-2-2-2-5-5-5-5-5-5-5-5-5-5-7--
A|-2-2-2-2-2-2-2-2-2-2-2-2-2-2-2-2-2-2-5-5-5-5-5-5-5-5-5-5-7--
E|-0-0-0-0-0-0-0-0-0-0-0-0-0-0-0-0-0-0-3-3-3-3-3-3-3-3-3-3-5--
The other little bit
--------------------
e|---------------------------------
B|-4-4-4-4-5-5-5-5-3-3-3-3-2-2-2-2-
G|---------------------------------
D|---------------------------------
A|---------------------------------
E|---------------------------------
That's it. Any improvements welcome, just sat down and worked this
much out in a few minutes for something to do.

Date: Mon, 1 Dec 1997 19:49:22 -0800 (PST)
From: [email protected]
Subject: correction of Local God by Everclear tab
Tab correction by Patrick Taylor. Send comments or anything to
[email protected]
For the outro/intro part I believe it should read like this:
intro/outro
-----------
e|-7-7-7-7/8--8--10
B|-7-7-7-7/8--8--8
G|-8-8-8-8/9--9--9
D|-9-9-9-9/10-10-10
A|-9-9-9-9/10-10-10
E|-7-7-7-7/8- 8--8
instead of this:
intro/outro
-----------
e|-1/2-2--2-5--2-
B|-3/4-4--4-4--4-
G|-3/4-4--4-4--4-
D|-3/4-4--4-4--4-
A|-1/2-2--2-2--2-
E|-1/2-2--2-2--2-
The rest of the original tab seems fairly accurate.




Ваше мнение



Капча