#----------------------------------PLEASE NOTE---------------------------------#
#This file is the author's own work and represents their interpretation of the #
#song. You may only use this file for private study, scholarship, or research. #
#------------------------------------------------------------------------------##
#
Date: 10 Feb 96 21:30:18 EST
From: David Swanson
Group: Everclear (S. Cuthbert, A. Alexakis, C. Montoya)
Tab: Invisible
Album: World of Noise (Capitol Records)
Submitted by: D.J. Swanson
This may not be 100% accurate. I figured it out myself, and I have
been known to make human errors.
Intro:
-------------------------------------------------------------------|
-------------------------------------------------------------------|
-------------------------------------------------------------------|
-------------------------------------------------------------------|
-------------------------------------------------------------------|
-0-2-2-2-2-0-0-0-0-2-2-2-2-0-0-0-0-2-2-2-2-0-0-0-0-2-2-2-2-0-0-----|
Verses
-------------------------------------------------------------------|
-------------------------------------------------------------------|
-------------------------------------------------------------------|
-------------------------------------------------------------------|
----0-0-0-0-----0-1-2----------------------------------------------|
-2-------------2---------------------------------------------------|
Repeat this.
Chorus:
---------------------------------|
---------------------------------|
---------------------------------|
---------------------------------|
-2---2-2-2-2-2-2-5-5-5-5-0-0-0-0-|
---------------------------------|
-----------------------------------------------|
-----------------------------------------------|
-----------------------------------------------|
-----------------------------------------------|
------0-0-0-0----0-1-2-------0-0-0-0----0-1-2--|
-2-2----------2--------2-2-----------2---------|
Note that the number of times strummed may vary, but these
seem to be the correct notes.
Lyrics:
Verse 1: Let notes Ring out.
I will live.
I will live.
Maybe for a year or 2
Maybe for a year.
I will die.
Yeah, I will die.
I can rest secure in that.
Chorus 1:
I am awful sure that this is not an accident.
And I can't believe that AIDS is just some act of God.
Verse 2: Palm muted.
I will reach for you.
I will reach my hand.
No one will reach for me.
No one will touch my skin.
I will accept
I will accept my pain.
I don't deserve to die like this.
No one deserves to die like this.
Chorus:
Sometimes I get so mad that I just want to break the world.
Sometimes I get so mad that I just want to break the world.
Verse 3: Palm muting.
I will not be denied.
I will not be ignored.
I'm not invisible anymore.
(x4)
Repeat Chorus 2.
I did not tab the solos, or the occasional lead guitar part.
Corrections or comments are welcome:
[email protected]




Ваше мнение



Капча