Song : I Will Buy You A New Life (correction!)
Band : Everclear
Tabbed By : Diamond Jerry ([email protected])
Strumming pattern not included...listen carefully for the timing...
Standard Tuning
------------------------------------------------------------------------------
[Intro] [end of intro]
G G
e------------------------||---------------------|
B------------------------||---------------------|
G------------------------||---------------------|
D---5-5-5--5-x--5-5--(3x)||----5-5-5--5-x-5-----|
A---5-5-5--5-x--5-5------||----5-5-5--5-x-5-----|
E---3-3-3--3-x--3-3------||----3-3-3--3-x-3-----|
mmm....oohhh.....yeah....

[Verse1]
G - B - G - B - G - B - C - Em - D
e-------------------------------------------------------------|
B-------------------------------------------------------------|
G--------4-x---------4-x----------4-x---5-x----------7--------|
D--5-x---4-x---5-x---4-x----5-x---4-x---5-x---2-x----7--------|
A--5-x---2-x---5-x---2-x----5-x---2-x---3-x---2-x----5--------|
E--3-x---------3-x----------3-x---------------0-x-------------|
Here is the money that I owe you
Yes you can pay the bills
I will give you more when I get paid again

G - B - G - B - G - B - C
e-------------------------------------------------------------|
B-------------------------------------------------------------|
G--------4-x---------4-x----------4-x---5-5-5-5--5------------|
D--5-x---4-x---5-x---4-x----5-x---4-x---5-5-5-5--5------------|
A--5-x---2-x---5-x---2-x----5-x---2-x---3-3-3-3--3------------|
E--3-x---------3-x----------3-x-------------------------------|
I hate those people who love to tell you
Money is the root of all that kills
They have never been poor, they have never had the joy of a welfare Christmas
------------------------------------------------------------------------------
[Break]
G G (little riff)
e-------------------------||------------------------------|
B-------------------------||------------------------------|
G-------------------------||------------------------------|
D---5-5-5--5-x--5-5--(3x)-||----5-5-5--5-x-5--------------|
A---5-5-5--5-x--5-5-------||----5-5-5--5-x-5------------5-|
E---3-3-3--3-x--3-3-------||----3-3-3--3-x-3------3-/7----|
yeah...oohh...I know we will never look back....yeah....(oohh..)
[Verse2]
G - B - G - B - G - B - C - Em - D
e-------------------------------------------------------------|
B-------------------------------------------------------------|
G--------4-x---------4-x----------4-x---5-x----------7--------|
D--5-x---4-x---5-x---4-x----5-x---4-x---5-x---2-x----7--------|
A--5-x---2-x---5-x---2-x----5-x---2-x---3-x---2-x----5--------|
E--3-x---------3-x----------3-x---------------0-x-------------|
You say you wake up crying
Yes and you don't know why
You get up and you go lay down inside my baby's room
G - B - G - B - G - B - C
e-------------------------------------------------------------|
B-------------------------------------------------------------|
G--------4-x---------4-x----------4-x---5-X-X-X--5------------|
D--5-x---4-x---5-x---4-x----5-x---4-x---5-X-X-X--5------------|
A--5-x---2-x---5-x---2-x----5-x---2-x---3-X-X-X--3------------|
E--3-x---------3-x----------3-x-------------------------------|
Yeah I guess I'm doing o.k
I moved in with the stangest guy
Can you believe he actually thinks I am really alive?
[Chorus]
G - B - Em - C G B C
e-------------------------------||e-----------------------|
B-------------------------------||B-----------------------|
G--------4-x---------5-x--------||G---------4-x---5-X-X---|
D--5-x---4-x---2-x---5-x---(3x)-||D---5-x---4-x---5-X-X---|
A--5-x---2-x---2-x---3-x--------||A---5-x---2-x---3-X-X---|
E--3-x---0-X---0-x---0-X--------||E---3-x---0-x---0-X-X---|
I will you buy you a garden
Where your flowers can bloom
I will buy you a new car,perfect shiny and new
I will buy you that big house
way up in the west hills
I will buy you a new life, Yes I will
G B G B (little slide)
e-----------------------------------|
B-----------------------------------|
G---------4-x-----------------------|
D---5-x---4-x---5-x---9---(9-5)----|
A---5-x---2-x---5-x---9---(9-5)----|
E---3-x---------3-x---7---(7-3)----|
------------------------------------------------------------------------------
[Verse3]
G - B - G - B - G - B - C - Em - D
e-------------------------------------------------------------|
B-------------------------------------------------------------|
G--------4-x---------4-x----------4-x---5-x----------7--------|
D--5-x---4-x---5-x---4-x----5-x---4-x---5-x---2-x----7--------|
A--5-x---2-x---5-x---2-x----5-x---2-x---3-x---2-x----5--------|
E--3-x---------3-x----------3-x---------------0-x-------------|
Yes I know all about that other guy
The handsome man with atheletic thighs
I know all about the times before,with that obsessive little rich boy
G - B - G - B - G - B - C
e-------------------------------------------------------------|
B-------------------------------------------------------------|
G--------4-x---------4-x----------4-x---5-X-X-X--5------------|
D--5-x---4-x---5-x---4-x----5-x---4-x---5-X-X-X--5------------|
A--5-x---2-x---5-x---2-x----5-x---2-x---3-X-X-X--3------------|
E--3-x---------3-x----------3-x-------------------------------|
They might make you think you're happy
Yeah, maybe for a minute or two
They can't make you laugh
No they can't make you feel the way that I do
(CHORUS)
G - B - Em - C G B C
e-------------------------------||e---------------------------|
B-------------------------------||B---------------------------|
G--------4-x---------5-x--------||G---------4-x---5-X-X-------|
D--5-x---4-x---2-x---5-x---(3x)-||D---5-x---4-x---5-X-X--(2x)-|
A--5-x---2-x---2-x---3-x--------||A---5-x---2-x---3-X-X-------|
E--3-x---0-X---0-x---0-X--------||E---3-x---0-x---0-X-X-------|

I will you buy you a garden
Where your flowers can bloom
I will buy you a new car,perfect shiny and new
I will buy you that big house
way up in the west hills
I will buy you a new life, yeah! (2x) (ohhhh)

G
e----------------------|
B----------------------|
G----------------------|
D---5-5-5--5-x--5-5----| 8x
A---5-5-5--5-x--5-5----|
E---3-3-3--3-x--3-3----|
yeah...ohh..I know we can never look back..
yeah...no...Will you please let me stay tonight?(no one will ever know) (2x)
no one will ever know...yeah...
That's all...the rest u should know!!! it's easy to play this song...
Notes: / = slide
x = strum (verse & chorus)
x = mute (intro)
------------------------------------------------------------------------------
Any comments or corrections,just mail me to [email protected]/ICQ #115343571




Ваше мнение



Капча