Everclear ?I Will Buy You a New Life?
Album: So Much for the Afterglow
Tabbed by Evergleam
This tab is the correct way to play this song.
h= hammer on p= pull off s= slide
Intro is a simple G5 (third fret) power chord
Verse- clean, this is only the tab, the tempo is slower than this looks. I put words in
to help in some places.
Pm--------| Pm--------------------------------|
E--------------------------------------------------------------------------------|
B-----3---x----------------------------3--------------------3--------------------|
G-------------0------------------------0--------------------x--------0-----------|
D------------------------------0--0-------------------------x------0-------------|
A--2------------2---2---2---0--x--x-------2---0----2---2----2---2------2---2---0-|
E--3---------------------------3--3-------------------------3---3----------------|
?when I get paid again? Pm-----------------------------------------|
E---------------------------------------------------------------------------------|
B---------------------------------------------------------------------------------|
G--------------0--------------------------0--------0-----------------------0---0--|
D---2----2-----2------------------0--------0--0---0---1---1-----------0--0--------|
A---3----3----------0----2------x-----3----x--x-------2---2---2---0---x--x--------|
E---------------------------0--------------3--3-----------------------3--3--------|
they have never had the joy of a? Pm--------------------------------------------|
E---------------------------------------------------------------------------------|
B----------------------------------3----------------------------------------------|
G----------------------------------0---0--------------------0---0---0---0---0-----|
D---1---1-----------------0---0-----------1----1----1-------2---2---2---2---2-----|
A---2---2-----2-----0-----x---x-----------2----2----2--0----3---3---3---3---3-----|
E-------------------------3---3---------------------------------------------------|
YEAH ?never look back YEAH
E--------------------------------------------------------------------------------|
B--------------------------------------------------------------------------------|
G--------------------------------------------------------------------------------|
D--0--0--0--0--0--0--0-------0--0--0--0--0--0--0--------0--0--0--0--0--0--0------|
A--x--x--x--x--x--x--x-------x--x--x--x--x--x--x--------x--x--x--x--x--x--x------|
E--3--3--3--3--3--3--3-------3--3--3--3--3--3--3--------3--3--3--3--3--3--3------|
Verse two is like above but kicks in with a Cadd9 chord at ?actually thinks I am
really alive.?
Chorus- two parts, one picking and one playing chords.
G B7 Em C
E--------3-------------------2----------------------0-------------------3--------|
B-------------3--------------------4----------------------0--------------------0-|
G----------------------------------------------------------------0---------2-----|
D---0---------------4--------------------------------------------x---------------|
A---x---------------2-----------------------2--------------------3---------------|
E---3---------------------------------------0------------------------------------|
Art does this three and half times and then plays this at ??new life?Yes I will?
E-------3----------3------------------------------------------------------------|
B-----------1---------------------------3-------------------------------4-------|
G---------------3-------3-3-3-----------0-------------------------------2-------|
D-----------------------2-2-2----0---0---------------------0-0----------4-------|
A--3---------------3----3-3-3----x---x-----2--2--2--2--0---2-2---0h2p0--2---9s0-|
E--------------------------------3---3---------------------3-3--------------7s0-|
Verse 3 is just like above also.
The second chorus has the underlining G, B7, Em, C chords but a also the following
over six measures.
G B7 Em C
E-------------------------------------------------------------------------------|
B-------12------15------12------------------------12------15------12------------|
G---12------12------12-------12-----14--------12-----12-------12------12-----14-|
D-------------------------------------------------------------------------------|
A-------------------------------------------------------------------------------|
E-------------------------------------------------------------------------------|
The interlude is the chorus chords with the below riff and then the third chorus
has all three parts and ends after that.
E---------3----------------3--------|
B--------------3----------------3---|
G--------------------0--------------|
D---0-------------------------------|
A---x-------------------------------|
E---3-------------------------------|




Ваше мнение



Капча