I Want To Die A Beautiful Death
Slow Motion Daydream
Lyrics By Art Alexakis
Music By Everclear
Tabbed By JR ([email protected])
The Spacy Intro:
e---
b---
g---
d---
a---
e-11
Guitar 1
e-------------------------------
b-------------------------------
g-------------------------------
d-4-4-4-4-4-4-4-4-4-4-4-4-4-4-4-
a-4-4-4-4-4-4-4-4-4-4-4-4-4-4-4-
e-2-2-2-2-2-2-2-2-2-2-2-2-2-2-2-
pm.............................
Everybody Here In This Small Town
Looks Used And Abused In Pain
Everyone here's lookin outside in
Seems like nothing ever changes
Guitar 1
e-------------------------------
b-------------------------------
g-------------------------------
d-4-4-4-4-4-4-4-4-4-4-4-4-4-4-4-
a-4-4-4-4-4-4-4-4-4-4-4-4-4-4-4-
e-2-2-2-2-2-2-2-2-2-2-2-2-2-2-2-
pm.............................
Guitar 2
e----
b-8--
g---8
d----
a----
e----
Everybody They Just wanna have a good time
Everybody They just wanna forget
Everybody Wants To Feel Like They Did
When The Sky Looked Good And The World Was Perfect
Both Guitars
e--------------------
b--------------------
g-4~---------------6~
d-4~---------------6~
a-2~---------------4~
e--------------------
I dont care I Just Wanna Die Pretty
e--------------------------------
b--------------------------------
g-8-8-8-8------------------------
d-8-8-8-8-4-4-4-4-6-6-6-6-4-4-4-4
a-6-6-6-6-4-4-4-4-6-6-6-6-4-4-4-4
e---------2-2-2-2-4-4-4-4-2-2-2-2
I just wanna get lost in the motion
I just wanna get lost in my beautiful self
I just wanna get lost in the city
e--------------------
b--------------------
g--------------------
d-9-9-9-9-9-9-9-9-11-
a-9-9-9-9-9-9-9-9-11-
e-7-7-7-7-7-7-7-7-9--
I Dont Wanna Live Forever
I Want To Die A Beautiful Death
e--------------------
b--------------------
g--------------------
d-4-4-4-4-4-4-4-4-4-4
a-4-4-4-4-4-4-4-4-4-4
e-2-2-2-2-2-2-2-2-2-2
pm...................
Guitar 1
e--------------------
b--------------------
g--------------------
d-4-4-4-4-4-4-4-4-4-4
a-4-4-4-4-4-4-4-4-4-4
e-2-2-2-2-2-2-2-2-2-2
pm...................
Guitar 2
e----
b-8--
g---8
d----
a----
e----
Yeah I've Gotta Get The Hell Out Of This Town
Everybodies Looking Upside Down
Everyone here's just lookin for the same pain
It really seems like nothing ever changes
Everybody They just wanna find a slow ride
Everybody They just wanna get by
Everyone Wants To Feel Like The Did When The Sky Looked High
And The World Was Simple
Both Guitars
e--------------------
b--------------------
g-4~---------------6~
d-4~---------------6~
a-2~---------------4~
e--------------------
I dont care I Just Wanna Die Pretty

e--------------------------------
b--------------------------------
g-8-8-8-8------------------------
d-8-8-8-8-4-4-4-4-6-6-6-6-4-4-4-4
a-6-6-6-6-4-4-4-4-6-6-6-6-4-4-4-4
e---------2-2-2-2-4-4-4-4-2-2-2-2
I just wanna get lost in the motion
I just wanna get lost in my beautiful self
I just wanna get lost in the city

e--------------------
b--------------------
g--------------------
d-9-9-9-9-9-9-9-9-11-
a-9-9-9-9-9-9-9-9-11-
e-7-7-7-7-7-7-7-7-9--
I Dont Wanna Live Forever
I Want To Die A Beautiful Death
Guitar 1
e-------------------------
b-------------------------
g-8-8---------------------
d-8-8----4-4-----6-6---4-4
a-6-6----4-4-----6-6---4-4
e--------2-2-----4-4---2-2
Guitar 2
e----------------------------
b-----16-----10----7----4
g----------------------------
d----------------------------
a----------------------------
e----------------------------
I Just Wanna Die A Beautiful Death
I Just Wanna Die A Beautiful Death
I Just Wanna Die A Beautiful
Both Guitars
e--------------------
b--------------------
g--------------------
d-9-9-9-9-9-9-9-9-11-
a-9-9-9-9-9-9-9-9-11-
e-7-7-7-7-7-7-7-7-9--
Death
(No Music)
I Just Wanna Die Pretty
e---
b---
g---
d-9~
a-9~
e-7~
Oh Oh Oh Oh
I Just Wanna Die Pretty
Oh Oh Oh Oh
I Just Wanna Die Pretty
I Just Wanna Die Pretty
Sometimes I Just Wanna Die
(Feedback)
I Just Wanna Get Lost In The Moment
I Just wanna Get Lost Inside the city tonight
I Just wanna Get Lost Indise Myself
I dont care about nothing
Guitar 1
e------------
b------------
g-pick scrape
d-pick scrape
a-pick scrape
e------------
WOOOOOOOAAAAAAAAAAH
Both Guitars
e--------------------------------
b--------------------------------
g-8-8-8-8------------------------
d-8-8-8-8-4-4-4-4-6-6-6-6-4-4-4-4
a-6-6-6-6-4-4-4-4-6-6-6-6-4-4-4-4
e---------2-2-2-2-4-4-4-4-2-2-2-2
I just wanna get lost in the motion
I just wanna get lost in my beautiful self
I just wanna get lost in the city
e--------------------
b--------------------
g--------------------
d-9-9-9-9-9-9-9-9-11-
a-9-9-9-9-9-9-9-9-11-
e-7-7-7-7-7-7-7-7-9--
I Dont Wanna Live Forever
I Want To Die A Beautiful Death
Guitar 1
e-------------------------
b-------------------------
g-8-8---------------------
d-8-8----4-4-----6-6---4-4
a-6-6----4-4-----6-6---4-4
e--------2-2-----4-4---2-2
Guitar 2
e----------------------------
b-----16-----10----7----4
g----------------------------
d----------------------------
a----------------------------
e----------------------------
I Just Wanna Die A Beautiful Death
I Just Wanna Die A Beautiful Death
I Just Wanna Die A Beautiful
Both Guitars
e--------------------
b--------------------
g--------------------
d-9-9-9-9-9-9-9-9-11-
a-9-9-9-9-9-9-9-9-11-
e-7-7-7-7-7-7-7-7-9--
Death
(No Music)
I Just Wanna Die Pretty




Ваше мнение



Капча