Date: Sun, 29 Dec 1996 15:09:03 -0700
From: Joe Kersting
Subject: TAB:'Heartspark Dollar Sign' by 'Everclear'
Song title: Heartspark Dollarsign
Artist: EVERCLEAR
CD title: Sparkle and Fade
Heartspark Dollarsign--Everclear
Intro:
|------------------------------------2--|-------------------------------2-------|
|---------5-----------------3--------3--|---------5-----------------3------3----|
|-------------0-------------0--------0--|-------------0-------------0---------0-|
|------0--------------------0-----------|------0--------------------0-----------|
|---------------------------------------|---------------------------------------|
|--5-----------------3------------------|--5-----------------3------------------|
|---------------------------------------|
|---------5-----------------3-----------|
|-------------0-------------0-----------|
|------0--------------------0-----------|
|---------------------------------------|
|--5-----------------3------------------|
Play this right after the intro:
G G G G D D D D C C C C D D D D G G G G D D D D C C C C D D D D
[Verse 1]
G G G G D D D D C C C C D D D D
Time stops when the whispers blare
G G G G D D D D C C C C D D D D
The voices drop hard but the eyes still stare
G G G G D D D D C C C C D D D D
The world resolves into a death's head grin
A A A A A A A A C C C C C C
because I walk with pride with a black girlfriend.
G G G G D D D D C C C C D D D D
Lead guitar plays this when Art says "into a death's head..."
e|----------------8--7--5--5-------------|
B|----------5--5--5--5--5--5-------------|
G|----------5--5-------------------------|
D|---------------------------------------|
A|---------------------------------------|
E|---------------------------------------|
[Verse 2]
G G G G D D D D C C C C D D D D
My mom said not to bring her around
G G G G D D D D C C C C D D D D
Cause she's black My family would put her down
G G G G D D D D C C C C D D D D
I'll break the white trash ties that bind
A A A A A A A A C C C C C C C C
Trade a love so pure for a hate so blind
G G G G D D D D C C C C D D D D
[Chorus 1]
A A E E A A E E C C C C G G G G D D D D A A A A
She said, She said, forget the fact that I don't look like you
A A E E A A E E C C C C C C C C D D D D D D D D
She said, She said, your possed with a power bigger than the pain
Solo:
|---------------------------------------|---------12--15------------------------|
|--15-b17r15---15--12---15--12----------|---12-15--------12---15--------15------|
|---------------------------------------|--------------------------12--------11-|
|---------------------------------------|---------------------------------------|
|---------------------------------------|---------------------------------------|
|---------------------------------------|---------------------------------------|
|---------12--15------------------------|---------------------------------------|
|---12-15--------12---15--------15------|---12---12--12--12-12---11-11--11--11--|
|--------------------------12--------11-|---12---12--12--12-12---12-12--12--12--|
|---------------------------------------|---------------------------------------|
|---------------------------------------|---------------------------------------|
|---------------------------------------|---------------------------------------|
|---------------------------------------|---------------------------------------|
|---12---12--12--12-12---11-11--11--11--|---------------------------------------|
|---12---12--12--12-12---12-12--12--12--|---------------------------------------|
|---------------------------------------|---------------------------------------|
|---------------------------------------|---------------------------------------|
|---------------------------------------|---------------------------------------|
[Verse 3]
G G G G D D D D C C C C D D D D
Time stops when we lie so close
G G G G D D D D C C C C D D D D
In my room where we share what no one knows
G G G G D D D D C C C C D D D D
From the day that we start to the day that we end
A A A A C C C C A A A A C C C C
I know I know I know now we will never find a place where we can just fit in
G G G G D D D D C C C C D D D D
G G G G D D D D C C C C D D D D
Me and my black girlfriend
[Chorus 2]
A A E E A A E E C C C C G G G G D D D D A A A A
She said, She said, fend for your self you'er alone
A A E E A A E E C C C C C C C C D D D D D D D D
She said, She said, your possed with a power bigger than the pain
[Verse 4]
G G G G D D D D C C C C D D D D
A power bigger than the pain
G G G G D D D D C C C C D D D D
A power bigger than the pain
G G G G D D D D C C C C D D D D
Heartspark dollar sign
G G G G D D D D C C C C D D D D G
Heartspark dollar sign
Well there it is, tab never worked for me, but here is the
legend any way just for reference.
Tab'n Legend:
-------
x = mute
b = bend
r = release
h = hammer on
p = pull off
~ = vibrato
/ = slide up
\ = slide down
^^ = tremolo




Ваше мнение



Капча