Hateful
MOM
Words By Art Alexakis
Music By Everclear
Intro Guitar 1 (Slightly Distorted)
e|--3~-2~-2~-3~~~~--|
B|--3~-2~-3~-4~~~~--|
G|--4~-3~-4~-5~~~~--| After C let it feedback
D|--5~-4~-4~-5~~~~--|
A|--5~-4~-2~-3~~~~--|
E|--3~-2~-----------|
G F# Bb C
Bass (Distorted)
G|---------------------------------------------|
D|---------------------------------------------| Repeat as needed
A|---------------------------------------------|
E|--3-3-2-3-3-2-3-3-2-3-3-2-3-3-2-3-3-2-3-3-2--|
then guitar 1 comes in
e|--------------------------------------------------------------|
B|--------------------------------------------------------------|
G|--4-4-4-4-4--5-5-5-5-5----------------------------------------|
D|--4-4-4-4-4--5-5-5-5-5--4/5-5-5--4/5-5-5--4/5-5-5--5-5-5-5-5--|
A|--2-2-2-2-2--3-3-3-3-3--4/5-5-5--4/5-5-5--4/5-5-5--5-5-5-5-5--|
E|------------------------2/3-3-3--2/3-3-3--2/3-3-3--3-3-3-3-3--|
Bb C F# G F# F# G G
Main Verse
(---------Palm muted----------)
e|-----------------------------------|
B|-----------------------------------|
G|------------------4-4-4-4-5-5-5-5--|
D|--5-5-5-5-4-4-4-4-4-4-4-4-5-5-5-5--|
A|--5-5-5-5-4-4-4-4-2-2-2-2-3-3-3-3--|
E|--3-3-3-3-2-2-2-2------------------|
G F# Bb C
She is livin' far away from a lonely man in the San Francisco Bay
e|-----------------------------------|
B|-----------------------------------|
G|------------------4-4-4-4-5-5-5-5--|
D|--5-5-5-5-4-4-4-4-4-4-4-4-5-5-5-5--|
A|--5-5-5-5-4-4-4-4-2-2-2-2-3-3-3-3--|
E|--3-3-3-3-2-2-2-2------------------|
G F# Bb C
He is dreamin' hard of a girl all claid in bad plaid and mad at the whole
world
Bridge 1st line of lyrics V 2nd line of lyrics
e|--------------------------------------------------|
B|--------------------------------------------------|
G|--4--5----------------------4--5-----5------------|
D|--4--5--5-4/5--4/5-5-5-5-5--4--5--7--5-5-5-5-5-5--|
A|--2--3--5-4/5--4/5-5-5-5-5--2--3--7--3-5-5-5-5-5--|
E|--------3-2/3--2/3-3-3-3-3--------5----3-3-3-3-3--|
Bb C G F# G F# G Bb C A C G
All her friends they are blessed impressed intelligent freaks,
All of them are six feet tall all of them are hateful to me
Bridge Continued
e|-----------------------------------------------|
B|-----------------------------------------------|
G|-----------------------------------------------|
D|--4/5-5-5-5--4/5-5-5-5-5--4/5-5--4/5-5--4/5-5--|
A|--4/5-5-5-5--4/5-5-5-5-5--4/5-5--4/5-5--4/5-5--|
E|--2/3-3-3-3--2/3-3-3-3-3--2/3-3--2/3-3--2/3-3--|
F# G F# G F# G F# G F# G
Verse
e|-----------------------------------|
B|-----------------------------------|
G|------------------4-4-4-4-5-5-5-5--|
D|--5-5-5-5-4-4-4-4-4-4-4-4-5-5-5-5--|
A|--5-5-5-5-4-4-4-4-2-2-2-2-3-3-3-3--|
E|--3-3-3-3-2-2-2-2------------------|
G F# Bb C
She sleeps alone and wet with her phone in her face all tied up in her
old bed,
e|-----------------------------------|
B|-----------------------------------|
G|------------------4-4-4-4-5-5-5-5--|
D|--5-5-5-5-4-4-4-4-4-4-4-4-5-5-5-5--|
A|--5-5-5-5-4-4-4-4-2-2-2-2-3-3-3-3--|
E|--3-3-3-3-2-2-2-2------------------|
G F# Bb C
She walks alone everyday up and down the rainy streets in her own weird
way
PreChorus 1st line of lyrics 2nd line of lyrics
e|--------------------------------------------------|
B|--------------------------------------------------|
G|--4--5----------------------4--5-----5------------|
D|--4--5--5-4/5--4/5-5-5-5-5--4--5--7--5-5-5-5-5-5--|
A|--2--3--5-4/5--4/5-5-5-5-5--2--3--7--3-5-5-5-5-5--|
E|--------3-2/3--2/3-3-3-3-3--------5----3-3-3-3-3--|
Bb C G F# G F# G Bb C A C G
All her friends they are blessed impressed intelligent freaks,
All of them are six feet tall all of them are hateful to me
Chorus
e|------------------------------|
B|------------------------------|
G|---------7-7-7---------5-5-5--|
D|--5-5-5--7-7-7--7-7-7--5-5-5--|
A|--5-5-5--5-5-5--7-7-7--3-3-3--|
E|--3-3-3---------5-5-5---------|
G D A C
Hateful
e|------------------------------|
B|------------------------------|
G|---------7-7-7---------5-5-5--|
D|--5-5-5--7-7-7--7-7-7--5-5-5--|
A|--5-5-5--5-5-5--7-7-7--3-3-3--|
E|--3-3-3---------5-5-5---------|
G D A C
Yeah their hateful
e|------------------------------|
B|------------------------------|
G|---------7-7-7---------5-5-5--|
D|--5-5-5--7-7-7--7-7-7--5-5-5--|
A|--5-5-5--5-5-5--7-7-7--3-3-3--|
E|--3-3-3---------5-5-5---------|
G D A C
to me Hateful
e|------------------------------|
B|------------------------------|
G|---------7-7-7---------5-5-5--|
D|--5-5-5--7-7-7--7-7-7--5-5-5--|
A|--5-5-5--5-5-5--7-7-7--3-3-3--|
E|--3-3-3---------5-5-5---------|
G D A C
Yeah their hateful
e|------------------------------|
B|------------------------------|
G|---------7-7-7---------5-5-5--|
D|--5-5-5--7-7-7--7-7-7--5-5-5--|
A|--5-5-5--5-5-5--7-7-7--3-3-3--|
E|--3-3-3---------5-5-5---------|
G D A C
to me Hateful
e|------------------------------|
B|------------------------------|
G|---------7-7-7---------5-5-5--|
D|--5-5-5--7-7-7--7-7-7--5-5-5--|
A|--5-5-5--5-5-5--7-7-7--3-3-3--|
E|--3-3-3---------5-5-5---------|
G D A C
Yeah their hateful
e|--------------------------------------|
B|--------------------------------------|
G|---------7-7-7---------5-5-5-5-5-5-5--|
D|--5-5-5--7-7-7--7-7-7--5-5-5-5-5-5-5--|
A|--5-5-5--5-5-5--7-7-7--3-3-3-3-3-3-3--|
E|--3-3-3---------5-5-5-----------------|
G D A C
to me Hateful_____
Outro
e|----------------------------------------------------3~--|
B|----------------------------------------------------3~--|
G|----------------------------------------------------4~--|
D|--3-3-3-3-3-3-3-3-3-3-3-3-3-3-3-3-3-3-3-3-3-4-4-4-4-5~--|
A|--3-3-3-3-3-3-3-3-3-3-3-3-3-3-3-3-3-3-3-3-3-4-4-4-4-5~--|
E|--1-1-1-1-1-1-1-1-1-1-1-1-1-1-1-1-1-1-1-1-1-2-2-2-2-3~--|
F Gb G
Getting very hateful




Ваше мнение



Капча