t. See http://www.olga.net/faq/ for more information. #
From: [email protected]
Date: Sun, 27 Feb 2000 01:47:39 EST
Subject: e/everclear/everything_to_everyone.crd
Everclear: Everything to Everyone
Album: So Much For the Afterglow
Track: 02
Art Alexakis: Vocals, Guitar
Craig Montoya: Bass, Vocals
Greg Eklund: Drums, Vocals
Verse:
C F A D
e: -----------------------------------------------
B: -----------------------------------------------
G: --9---9--9----10-10-10-----6-6-6-----7-7-7---
D: --10-10-10----10-10-10-----7-7-7-----7-7-7---
A: --10-10-10-----8--8--8-----7-7-7-----5-5-5---
E: --8---8--8-----------------5-5-5-------------
*The last time played before the chorus, substitute a G in for the D.

Chorus:
C C D D
e: ------------------------------------------------------
B: ------------------------------------------------------
G: ---9---9--9--9----9--9--9-----7-7-7-7---7-7-7------
D: ---10-10-10-10---10-10-10-----7-7-7-7---7-7-7------
A: ---10-10-10-10---10-10-10-----5-5-5-5---5-5-5------
E: ---8---8--8--8----8--8--8----------------------------

Solo:
*This isn't right, but just fool around with the notes around here.
e: ----------------10--------------
B: ------9-10-9-------9-10-9------
G: ----9---------9------------9----
D: ---------------------------------
A: ---------------------------------
E: ---------------------------------
Well thats about all I've got for this one. This work was my own, I just
picked it up off the cd. If you have any questions just email me at
[email protected] Later




Ваше мнение



Капча