Electra Made me blind
Sparkle and fade
Lyrics By Art Alexakis
Music By Everclear
e|-----8----------------8---------------------------
b|5---5---5---5-5-5-5-5---5---5---------------------
g|6---6---6---6-6-6-6-6---6---6---------------------
d|7---7---7---7-7-7-7-7---7---7---------------------
a|--------------------------------------------------
e|--------------------------------------------------
verse (repeat x1 then start with lyrics on first verse)
e|----------------------------------------------------
b|5--5--5--5-5-5-5---7--7--7---10--10--10-------------
g|6--6--6--6-6-6-6---8--8--8---11--11--11-------------
d|7--7--7--7-7-7-7---9--9--9---12--12--12-------------
a|----------------------------------------------------
e|----------------------------------------------------
chorus1 (with distortion, play rest of song distorted)
e|--------------------------------------------------
b|--------------------------------------------------
g|----------------------------------------9-9-9-9-9-
d|---7----7-7----3---3-3---2---2--2--2-2--9-9-9-9-9-
a|---7----7-7----3---3-3---2---2--2--2-2--7-7-7-7-7-
e|---5----5-5----1---1-1---0---0--0--0-0--0-0-0-0-0-
chorus2
e|-----------------------------------------------------
b|-----------------------------------------------------
g|-----------------------------------------------------
d|---7----7-7----3---3-3---2---2--2----6--6------------
a|---7----7-7----3---3-3---2---2--2----6--6------------
e|---5----5-5----1---1-1---0---0--0----4--4------------
repeat that x3, then finish that off with chorus1
solo
e|--------------------------------------------------------
b|---------------10------9--------------------------------
g|-----------9-----------------9---------9/12--12-12-12-12
d|--10/11-------------------------------------------------
a|--------------------------------------------------------
e|--------------------------------------------------------
July she lied...
guitar1 plays intro
guitar2
e|------------------------------------------------
b|------------------------------------------------
g|------------------------------------------------
d|------------------------------------------------
a|------------------------------------------------
e|-5--5--5--5--5--5--5--5--8--8--8--8--8--8--8--8-
e|---------------------------------------------
b|---------------------------------------------
g|---------------------------------------------
d|---------------------------------------------
a|---------------------------------------------
e|12-12-12-12-12-12-12-12-11-11-11-11-11-11-11-




Ваше мнение



Капча