Deep In Empty out
The Giant Records Demo
Words By Art Alexakis
Music by Everclear

Intro (Guitar 1 W/ slight Distortion)
e|---------------------------------------------------|
B|---------------------------------------------------|
G|---------------------------------------------------|
D|--5~---5-6-7-8~-----8-7-6-5~----5-6-7-8---8-10-10--|
A|--5~---5-6-7-8~-----8-7-6-5~----5-6-7-8---8-10-10--|
E|--3~---3-4-5-6~-----6-5-4-3~----3-4-5-6---6-8--8---|
G Ab A Bb Bb A Ab G G Ab A Bb Bb C

Main Verse (Guitar 1 W/ Slight Distortion)
e|---------------------------------------------------|
B|---------------------------------------------------|
G|---------------------------------------------------|
D|--5~---5-6-7-8~-----8-7-6-5~----5-6-7-8---8-10-10--|
A|--5~---5-6-7-8~-----8-7-6-5~----5-6-7-8---8-10-10--|
E|--3~---3-4-5-6~-----6-5-4-3~----3-4-5-6---6-8--8---|
G Ab A Bb Bb A Ab G G Ab A Bb Bb C

Chorus (Guitar 1 (W/ Slight Distortion)
e|------------------------------------|
B|------------------------------------|
G|------------------------------------|
D|--5~---5-5-5-4-3-2~---2-2-2-3-4-5~--|
A|--5~---5-5-5-4-3-2~---2-2-2-3-4-5~--|
E|--3~---3-3-3-2-1-0~---0-0-0-1-2-3~--|
G G F# F Em Em F F# G

I Know this solo is missing some parts, I will add them as I figure them
out. But this will help you.

Solo (Guitar 1 W/ Slight Distortion)
e|---------------------------------------------------------|
B|---------------------------------------------------------|
G|---------------------------------------------------------|
D|8-8-8-8-8-8-8-8-8-10-10-10-10-10-10-10-10-10-13-13-13-13b|
A|---------------------------------------------------------|
E|---------------------------------------------------------|




Ваше мнение



Капча