Everclear
Crazy Train
Words By Ozzy Osbourne
Music By Ozzy Osbourne
Bass
G|----------------------------------------------------------|
D|----------------------------------------------------------|
A|--------------------------------------5--5----------------|
E|--2--2-------5--5---0--0---2--2--------------0--0---2--2--|
F# A Em F# D Em F#
Aye (Aye Aye...)
G|----------------------------------------------------------|
D|----------------------------------------------------------|
A|--------------------------------------5--5----------------|
E|--2--2-------5--5---0--0---2--2--------------0--0---2--2--|
F# A Em F# D Em F#
Note Pick scarpe first time only (Duh !)
e|---------------------------------------------------|
B|---------------------------------------------------|
G|---------------------------------------------------|
D|--Pick Scrape-----------------------------------| Repeat 3 times then
A|--Pick Scrape------4---5---4---2-------2--------|
E|--Pick Scrape--2-2---2---2---2---5-4-5---5-4-0--|
G|----------------------------------------------------------|
D|----------------------------------------------------------|
A|--------------------------------------5--5----------------| Repeat
E|--2--2-------5--5---0--0---2--2--------------0--0---2--2--| 3 times
F# A Em F# D Em F#
e|------------------------------------------|
B|------------------------------------------|
G|-------------------7-7-7-7-7/9-9-9-9-9-9--|
D|-------------------7-7-7-7-7/9-9-9-9-9-9--|
A|------4---5---4----5-5-5-5-5/7-7-7-7-7-7--|
E|--2-2---2---2---2-------------------------|
D E
G|---------------------------------------------------------|
D|---------------------------------------------------------|
A|----------------------------------5-5-5-5-5/7-7-7-7-7-7--|
E|--2--2-------5--5---0--0---2--2--------------------------|
F# A Em F# D E
Main Verse
e|--------------------------------------------|
B|--------------------------------------------|
G|------2---------6---------4---------2-2-----|
D|------2---------6---------4---------2-2-----|
A|--0-0-0-0-0-0-0-4-0-0-0-0-2-0-0-0-0-0-0-----|
E|----------------------------------------4b--|
PM * * * * * * * * * * * * * *
A Db B A
G|--------------------------------------------|
D|--------------------------------------------|
A|--0-0-0-0-0-0-0-4-0-0-0-0-2-0-0-0-0-0-0-----|
E|----------------------------------------4b--|
A Db A B Ab Ab
e|--------------------------------------------|
B|--------------------------------------------|
G|------2---------6---------4---------2-2-----|
D|------2---------6---------4---------2-2-----|
A|--0-0-0-0-0-0-0-4-0-0-0-0-2-0-0-0-0-0-0-----|
E|----------------------------------------4b--|
PM * * * * * * * * * * * * * *
A Db B A
G|--------------------------------------------|
D|--------------------------------------------|
A|--0-0-0-0-0-0-0-4-0-0-0-0-2-0-0-0-0-0-0-----|
E|----------------------------------------4b--|
A Db A B Ab Ab
e|--------------------------------------------|
B|--------------------------------------------|
G|------2---------6---------4---------2-2-----|
D|------2---------6---------4---------2-2-----|
A|--0-0-0-0-0-0-0-4-0-0-0-0-2-0-0-0-0-0-0-----|
E|----------------------------------------4b--|
PM * * * * * * * * * * * * * *
A Db B A
crazy But that's how it goes
G|--------------------------------------------|
D|--------------------------------------------|
A|--0-0-0-0-0-0-0-4-0-0-0-0-2-0-0-0-0-0-0-----|
E|----------------------------------------4b--|
A Db A B Ab Ab
e|--------------------------------------------|
B|--------------------------------------------|
G|------2---------6---------4---------2-2-----|
D|------2---------6---------4---------2-2-----|
A|--0-0-0-0-0-0-0-4-0-0-0-0-2-0-0-0-0-0-0-----|
E|----------------------------------------4b--|
PM * * * * * * * * * * * * * *
A Db B A
Millions of people live in dispose
G|--------------------------------------------|
D|--------------------------------------------|
A|--0-0-0-0-0-0-0-4-0-0-0-0-2-0-0-0-0-0-0-----|
E|----------------------------------------4b--|
A Db A B Ab Ab
e|--------------------------------------------|
B|--------------------------------------------|
G|------2---------6---------4---------2-2-----|
D|------2---------6---------4---------2-2-----|
A|--0-0-0-0-0-0-0-4-0-0-0-0-2-0-0-0-0-0-0-----|
E|----------------------------------------4b--|
PM * * * * * * * * * * * * * *
A Db B A
mmmmmmm it's not too late
G|--------------------------------------------|
D|--------------------------------------------|
A|--0-0-0-0-0-0-0-4-0-0-0-0-2-0-0-0-0-0-0-----|
E|----------------------------------------4b--|
A Db A B Ab Ab
e|--------------------------------------------|
B|--------------------------------------------|
G|------2---------6---------4---------2-2-----|
D|------2---------6---------4---------2-2-----|
A|--0-0-0-0-0-0-0-4-0-0-0-0-2-0-0-0-0-0-0-----|
E|----------------------------------------4b--|
PM * * * * * * * * * * * * * *
A Db B A
to learn how to love
G|--------------------------------------------|
D|--------------------------------------------|
A|--0-0-0-0-0-0-0-4-0-0-0-0-2-0-0-0-0-0-0-----|
E|----------------------------------------4b--|
A Db A B Ab Ab
e|--------------------------------------------|
B|--------------------------------------------|
G|------2---------6---------4---------2-2-----|
D|------2---------6---------4---------2-2-----|
A|--0-0-0-0-0-0-0-4-0-0-0-0-2-0-0-0-0-0-0-----|
E|----------------------------------------4b--|
PM * * * * * * * * * * * * * *
A Db B A
forget how to hate
G|--------------------------------------------|
D|--------------------------------------------|
A|--0-0-0-0-0-0-0-4-0-0-0-0-2-0-0-0-0-0-0-----|
E|----------------------------------------4b--|
A Db A B Ab Ab
Chorus
e|------------------------|
B|------------------------|
G|-------------7-----7H~--|
D|--4-2-4---4--7---7H~----|
A|--4-2-4---4--5-5H~------|
E|--2-0-2---2-------------|
F# Em F# D
G|----------------|
D|----------------|
A|-------------5--|
E|--2-0-2---2-----|
F# Em F# D
*****TAPE ENDS HERE*****
But if your interested here's how the rest of the Chorus goes
e|-----------------------------------------------|
B|-----------------------------------------------|
G|-------------7-----7H~------------------7-7-7--|
D|--4-2-4---4--7---7H~---------4-2-4---4--7-7-7--|
A|--4-2-4---4--5-5H~-----------4-2-4---4--5-5-5--|
E|--2-0-2---2------------------2-0-2---2---------|
F# Em F# D F# Em F# D
G|-----------------------------------------------|
D|-----------------------------------------------|
A|-------------5--------------------------5-5-5--|
E|--2-0-2---2------------------2-0-2---2---------|
F# Em F# D F# Em F# D
e|-----------------------------------|
B|-------------=---------------------|
G|--------2-2-2-2--------------------|
D|--------2-2-2-2-----2-2-2-2-2------|
A|--5-4-2-0-0-0-0-----2-2-2-2-2------|
E|----------------4-2-0-0-0-0-0-2-4--|
D Db B A Ab F# Em F# Ab
G|-----------------------------------|
D|-----------------------------------|
A|--5-4-2-0-0-0-0--------------------| Repeat then
E|----------------4-2-0-0-0-0-0-2-4--|
D Db B A Ab F# Em F# Ab
e|-------------------------|
B|-------------------------|
G|--7-7-7-7-7/9-9-9-9-9-9--|
D|--7-7-7-7-7/9-9-9-9-9-9--|
A|--5-5-5-5-5/7-7-7-7-7-7--|
E|-------------------------|
D E
G|-------------------------|
D|-------------------------|
A|--5-5-5-5-5/7-7-7-7-7-7--|
E|-------------------------|
D E
The back to the Main Verse, then the chorus, the the solo....
But this should get you started.




Ваше мнение



Капча