Blondes
1-5 killers
Lyrics By Art Alexakis
Music By Everclear
VERSION 2 - Tabbed by Jason Pan
Intro
e|-----------|
B|o---------o|
G|---9-6-9---|
D|---9-6-9---|
A|o--7-4-7--o|
E|-----------|
Main Riff Main Riff Variation
e|------------------| e|-----------|
B|o----------------o| B|o---------o|
G|----6-6----6/5/4--| G|----6/5/4--|
D|--4-6-6----6/5/4--| D|--4-6/5/4--|
A|o-4-4-4----4/3/2-o| A|o-4-4/3/2-o|
E|--2---------------| E|--2--------|
(Intro x8)
(Main Riff x4)
(Main Riff throughout verse)
You are a loser just like I was
You are a loser like the rest of your friends
You're a loser in the worst of ways
I think you're losing just to make up
E B
Yeah I've seen the light
E A
All around your face
(Main riff throughout verse)
I see you dying in the highway
I see you climbing up the hill
I see your sunshine on your blonde hair
I see you worshipping the thrill
E B
Yeah I've seen the light
E A
All around your face
E B
Yeah I've seen the light
G# A
Shine in your eyes
E B
Yeah I've seen the light
E A
Light from another place
E B
Now I know its not real
(Main Riff)
Yes I know it's not real
Yes I know it's not real
Yes I know it's not real
(Bass only)
Yes I know it's not real
Yes I know it's not
(Main Riff x2)
(Main Riff Variation x4)
(Main Riff x2)
(Main Riff Variation x4)
E B
Yeah I've seen the light
E A
All around your face
E B
Yeah I've seen the light
G# A
Shine in your eyes
E B
Yeah I've seen the light
E A
Light from another place
E B
Now I know its not real
(Main Riff)
Now I know it's not real
Now I know it's not real
Now I know it's not real
Now I know it's not real
Now I know it's not real
VERSION 3 - Tabbed by Steve Smith
I got Blondes off of White Trash Hell EP. It's pretty cool and really easy.
Intro
e|-------------------------
b|-------------------------
g|-6-6-6----6-6-6----6-6-6-
d|-6-6-6----6-6-6----6-6-6-
a|-4-4-4----4-4-4----4-4-4-
e|-------------------------
Verse
e|-----------------------------------------------------
b|-----------------------------------------------------
g|-6-6-6--6-6-6--6-5-4--6-6-6--6-6-6--6-5-4------------
d|-6-6-6--6-6-6--6-5-4--6-6-6--6-6-6--6-5-4------------
a|-4-4-4--4-4-4--4-3-2--4-4-4--4-4-4--4-3-2------------
e|-----------------------------------------------------
Chorus
e|-----------------------------------
b|-----------------------------------
g|-----------------------------------
d|--7-7-7-7-6-6-6-6-7-7-7-7-6-6-6-6--
a|--7-7-7-7-6-6-6-6-7-7-7-7-6-6-6-6--
e|--5-5-5-5-4-4-4-4-5-5-5-5-4-4-4-4--
The solo part is basically a C# pentatonic. So start on the b string at the ninth fret or so.




Ваше мнение



Капча