Blackjack
Slow Motion Daydream
Lyrics By Art Alexakis
Music By Everclear
Tabbed By JR ([email protected])
Intro
e----------------------------------
b----------------------------------
g----------------------------------
d-6-6-64-4/6-6-64-4/6-6-64-4/6-6 Repeat
a-6-6-64-4/6-6-64-4/6-6-64-4/6-6
e-4-4-42-2/4-4-42-2/4-4-42-2/4-4
Ugh!
VERSE
e------------
b------------
g------------
d-6-6-6-6-6-X
a-6-6-6-6-6-X
e-4-4-4-4-4-X
Scary John Gets His Strong Arm On
He Can Make Me And Break Me
Happy With His Blackjack
Scary John Gets His Heavy Hand On
He smiles without his Eyes
Nice And Easy With His Blackjack
Prechorus
e-----------------------------------------
b-----------------------------------------
g-9-9-9-9---------11-11-11-11-11-11-11-11-
d-9-9-9-9-9-9-9-9-11-11-11-11-11-11-11-11-
a-7-7-7-7-9-9-9-9-9--9--9--9--9--9--9--9--
e---------7-7-7-7-------------------------
Dont Tell Me That You Didnt See This Coming Down
e------------------------------------------------------------------------
b------------------------------------------------------------------------
g------------------------------------------------------------------------
d-6-6-64-4/6-6-64-4/6-6-64-4/6-6-X-6-6-64-4/6-6-64-4/6-6-64-4/6-6-X
a-6-6-64-4/6-6-64-4/6-6-64-4/6-6-X-6-6-64-4/6-6-64-4/6-6-64-4/6-6-X
e-4-4-42-2/4-4-42-2/4-4-42-2/4-4-X-4-4-42-2/4-4-42-2/4-4-42-2/4-4-X
e-----------------------------------------
b-----------------------------------------
g-9-9-9-9---------11-11-11-11-11-11-11-11-
d-9-9-9-9-9-9-9-9-11-11-11-11-11-11-11-11-
a-7-7-7-7-9-9-9-9-9--9--9--9--9--9--9--9--
e---------7-7-7-7-------------------------

Please Dont Say That This Isnt What You Wanted Now
e------------------------------------------------------------------------
b------------------------------------------------------------------------
g------------------------------------------------------------------------
d-6-6-64-4/6-6-64-4/6-6-64-4/6-6-X-6-6-64-4/6-6-64-4/6-6-64-4/6-6-X
a-6-6-64-4/6-6-64-4/6-6-64-4/6-6-X-6-6-64-4/6-6-64-4/6-6-64-4/6-6-X
e-4-4-42-2/4-4-42-2/4-4-42-2/4-4-X-4-4-42-2/4-4-42-2/4-4-42-2/4-4-X
Verse 2
e------------
b------------
g------------
d-6-6-6-6-6-X
a-6-6-6-6-6-X
e-4-4-4-4-4-X
Scary Johnny Gets His Strong Arm On
He can Make Me And Brake Me
Happy with his Blackjack
Scary John Always Knows Whats Going On
He is everywhere
Happy With His Black Jack
Prechorus
e-----------------------------------------
b-----------------------------------------
g-9-9-9-9---------11-11-11-11-11-11-11-11-
d-9-9-9-9-9-9-9-9-11-11-11-11-11-11-11-11-
a-7-7-7-7-9-9-9-9-9--9--9--9--9--9--9--9--
e---------7-7-7-7-------------------------
Dont Tell Me That You Didnt See This Coming Down
e------------------------------------------------------------------------
b------------------------------------------------------------------------
g------------------------------------------------------------------------
d-6-6-64-4/6-6-64-4/6-6-64-4/6-6-X-6-6-64-4/6-6-64-4/6-6-64-4/6-6-X
a-6-6-64-4/6-6-64-4/6-6-64-4/6-6-X-6-6-64-4/6-6-64-4/6-6-64-4/6-6-X
e-4-4-42-2/4-4-42-2/4-4-42-2/4-4-X-4-4-42-2/4-4-42-2/4-4-42-2/4-4-X
No No No
e-----------------------------------------
b-----------------------------------------
g-9-9-9-9---------11-11-11-11-11-11-11-11-
d-9-9-9-9-9-9-9-9-11-11-11-11-11-11-11-11-
a-7-7-7-7-9-9-9-9-9--9--9--9--9--9--9--9--
e---------7-7-7-7-------------------------

Please Dont Say That This Isnt What You Wanted Now
e------------------------------------------------------------------------
b------------------------------------------------------------------------
g------------------------------------------------------------------------
d-6-6-64-4/6-6-64-4/6-6-64-4/6-6-X-6-6-64-4/6-6-64-4/6-6-64-4/6-6-X
a-6-6-64-4/6-6-64-4/6-6-64-4/6-6-X-6-6-64-4/6-6-64-4/6-6-64-4/6-6-X
e-4-4-42-2/4-4-42-2/4-4-42-2/4-4-X-4-4-42-2/4-4-42-2/4-4-42-2/4-4-X
Chorus
e---------------------------------------------------------
b---------------------------------------------------------
g-------------------------9-9-9-9-9-9-9-9-----------------
d-11-11-11-11-11-11-11-11-9-9-9-9-9-9-9-9--9-9-9-9-9-9-9-9
a-11-11-11-11-11-11-11-11-7-7-7-7-7-7-7-7--9-9-9-9-9-9-9-9
e-9--9--9--9--9--9--9--9-------------------7-7-7-7-7-7-7-7
Yeah this is your American Dream
Everything Is Simple With The White And The Black
You never have to see the gray anymore
You will never have to be afraid
When you are happy with the Blackjack
e--------------------------------------------------------------------
b--------------------------------------------------------------------
g--------------------------------------------------------------------
d-6-6-64-4/6-6-64-4/6-6-64-4/6-6-X-6-6-64-4/6-6-64-4/6-6-64-4-5
a-6-6-64-4/6-6-64-4/6-6-64-4/6-6-X-6-6-64-4/6-6-64-4/6-6-64-4-5
e-4-4-42-2/4-4-42-2/4-4-42-2/4-4-X-4-4-42-2/4-4-42-2/4-4-42-2-3
When You Are Happy With The Black Jack
I Hope you're happy with the Black Jack
Middle Part: (bass arranged for guitar)
e----------
b----------
g----------
d-6-6-6-6-6
a-6-6-6-6-6
e-4-4-4-4-4

Scary John wants To Kill My Song
He doesn't like the fact
I'm not happy with the black jack

I dont Want to hear the words that he has to say e-yeah-e-yeah-e-yeah-e-yeah
e-----------------------------------------
b-----------------------------------------
g-9-9-9-9---------11-11-11-11-11-11-11-11-
d-9-9-9-9-9-9-9-9-11-11-11-11-11-11-11-11-
a-7-7-7-7-9-9-9-9-9--9--9--9--9--9--9--9--
e---------7-7-7-7-------------------------
Dont Tell Me That You Didnt See This Coming Down
e------------------------------------------------------------------------
b------------------------------------------------------------------------
g------------------------------------------------------------------------
d-6-6-64-4/6-6-64-4/6-6-64-4/6-6-X-6-6-64-4/6-6-64-4/6-6-64-4/6-6-X
a-6-6-64-4/6-6-64-4/6-6-64-4/6-6-X-6-6-64-4/6-6-64-4/6-6-64-4/6-6-X
e-4-4-42-2/4-4-42-2/4-4-42-2/4-4-X-4-4-42-2/4-4-42-2/4-4-42-2/4-4-X
e-----------------------------------------
b-----------------------------------------
g-9-9-9-9---------11-11-11-11-11-11-11-11-
d-9-9-9-9-9-9-9-9-11-11-11-11-11-11-11-11-
a-7-7-7-7-9-9-9-9-9--9--9--9--9--9--9--9--
e---------7-7-7-7-------------------------
Please Don't Tell me that this isnt what you wanted now
e------------------------------------------------------------------------
b------------------------------------------------------------------------
g------------------------------------------------------------------------
d-6-6-64-4/6-6-64-4/6-6-64-4/6-6-X-6-6-64-4/6-6-64-4/6-6-64-4/6-6-X
a-6-6-64-4/6-6-64-4/6-6-64-4/6-6-X-6-6-64-4/6-6-64-4/6-6-64-4/6-6-X
e-4-4-42-2/4-4-42-2/4-4-42-2/4-4-X-4-4-42-2/4-4-42-2/4-4-42-2/4-4-X
e-----------------------------------------
b-----------------------------------------
g-9-9-9-9---------11-11-11-11-11-11-11-11-
d-9-9-9-9-9-9-9-9-11-11-11-11-11-11-11-11-
a-7-7-7-7-9-9-9-9-9--9--9--9--9--9--9--9--
e---------7-7-7-7-------------------------
Please Dont Tell Me That This Isnt What You Asked For
e---------------------------------------------------------
b---------------------------------------------------------
g-------------------------9-9-9-9-9-9-9-9-----------------
d-11-11-11-11-11-11-11-11-9-9-9-9-9-9-9-9--9-9-9-9-9-9-9-9
a-11-11-11-11-11-11-11-11-7-7-7-7-7-7-7-7--9-9-9-9-9-9-9-9
e-9--9--9--9--9--9--9--9-------------------7-7-7-7-7-7-7-7

Be Careful What You Ask For
Be Careful What You Ask For
Be Careful What You Ask For
Yeah This Is Your American Dream
Oh Everything is simple with the white and the black
You never have to see the gray anymore
You will never have to be afraid
When You Are Happy With The Blackjack
e--------------------------------------------------------------------
b--------------------------------------------------------------------
g--------------------------------------------------------------------
d-6-6-64-4/6-6-64-4/6-6-64-4/6-6-X-6-6-64-4/6-6-64-4/6-6-64-4-5
a-6-6-64-4/6-6-64-4/6-6-64-4/6-6-X-6-6-64-4/6-6-64-4/6-6-64-4-5
e-4-4-42-2/4-4-42-2/4-4-42-2/4-4-X-4-4-42-2/4-4-42-2/4-4-42-2-3
When You Are Happy With The Blackjack
I Hope You're Happy With the Blackjack
When You Are Happy With The Blackjack
I Hope You're Happy With the Blackjack
Outro
e-----------------
b-----------------
g-----------------
d-4-4--4-4--4-4-5-
a-4-4--4-4--4-4-5-
e-2-2--2-2--2-2-3-
UGH
Yeah This Is Your American Dream
This IS Your American Dream
This Is Your America Dream
e----
b----
g----
d-4-4
a-4-4
e-2-2
This Is Your American Dream




Ваше мнение



Капча