Artist - Everclear
Song - AM Radio
Album - Songs from an american movie part 1...
Well im sure the bass pattern is more complicated than this,
but this is the main notes played...
Well for this song i tune the bass down a tone because i think it sounds good that way.
So the tuning will be G D A D
Verse/Chorus
G|---------------------------|
D|---------------------------|
A|---------------------------|
D|-1-111-1-111-4-444-4-66-44-|
I'd be in bed with the radio on....
G|----------------------------|
D|---------3-3-3-3------------|
A|-3-3-3-3--------------------|
D|-----------------4-4-4-4--6-|
Teach me to play...
G|---------------------------------| -----
D|---------3-3-3-3-----------------| -----
A|-3-3-3-3-------------------------|x2 Then -----
D|-----------------4-4-4-4-4-4-4-4-| -(6)-
Through the interlude its just an Eb that is played then the main riff comes back
Well i hope thats right, coz its my first tabbing attempt!
Tabbed by Adam Harris
[email protected]
==========================================================
Everclear - AM Radio
Bass tab

Song: Am Radio
Band: Everclear
Album: Songs from and American Movie, Vol. 1
Tabbed by: Ben Nugent, [email protected]

e-mail me for corrections.
--------------------------------------------

Listen to CD for proper timing.

Just repeat this throughout the song:

Listen for brakes and octave changes.

G=-------------------------------------------
D=-------------------------------------------
A=--4---66---4---66----------------------
E=-----------------------2---44---2---44-




Ваше мнение



Капча