All F**ked Up
Songs From An American Movie Volume 2: Good Time For A Bad Attitude
Lyrics By Art Alexakis
Bass By Craig Montoya
(W/Heavy Distortion)
G|-----------------|
D|-----------------| Repeat 3 times
A|--4-4-4-6-6-6-6--|
E|-----------------|
Db Eb
Main Verse
(W/Heavy Distortion)
G|-----------------------------------------------------|
D|-----------------------------------------------------| Repeat as needed
A|--6-6-6-6-------2-2-2-2-------1-1-1-1----------------|
E|----------4-4-4---------2-2-2---------2-2-2-4-4-4-4--|
Eb Ab B F# Bb F# Ab
Chorus
(W/Heavy Distortion)
G|-------------------|
D|-------------------|
A|--6-6-6-6-X-4-4-4--| Repeat as Needed
E|-------------------|
Eb Db
Bridge
(W/Heavy Distortion)
G|--------------------------------------------|
D|--------------------------------------------|
A|--6rrr---------6rrr---------6---6---6--6-6--|
E|--------------------------------------------|
Eb Eb Eb
Solo- same as main verse
Outro
(Clean maybe W/Chorus)
G|---------------------------------------------------------|
D|---------------------------------------------------------|
A|--6-----6---------2-----2---------1-----1---------------6-
E|----------4-----4---------2-----2---------2-----2-4-----4|
Eb Ab B F# Bb F# Ab




Ваше мнение



Капча