-----------------------------------------------------------------------------
WITHOUT YOU HERE - Eve 6
-----------------------------------------------------------------------------
Tabbed by: Kevin
Email: [email protected]
Tuning: Standard Tuning
Intro:
e|---------------------------------------------------------------------------
B|-----8-------7------5------------------------------------------------------
G|---9-------7-------5-------------------------------------------------------
D|------------------5--------------------------------------------------------
A|-7-------5-------3---------------------------------------------------------
E|---------------------------------------------------------------------------
e|---------------------------------------------------------------------------
B|---------------------------------------------------------------------------
G|---------------------------------------------------------------------------
D|---------------------------------------------------------------------------
A|--------------------------------5555-5555-5555-5555-3333-3333-3333-3333----
E|-3333-3333-3333-3333-play 2 X's--------------------------------------------
verse 1
e|---------------------------------------------------------------------------
B|---------------------------------------------------------------------------
G|---------------------------------------------------------------------------
D|-------------------7-7-7-77-777-77---5-5-5-55-555-55-----------------------
A|-5-5-5-55-555-55---5-5-5-55-555-55---3-3-3-33-333-33--repeat 2 X's---------
E|-3-3-3-33-333-33-----------------------------------------------------------
e|---------------------------------------------------------------------------
B|---------------------------------------------------------------------------
G|---------------------------------------------------------------------------
D|---------------------------------------------------------------------------
A|-55-3---5-5-5--3---5-------------------------------------------------------
E|-33-1-s-3-3-3--1-s-3-------------------------------------------------------
E----------------------------------------------------------------------------
B|---------------------------------------------------------------------------
G|---------------------------------------------------------------------------
D|----------7-7-777--5-4-5-4-5-4---------------------------------------------
A|-5-5-555--5-5-555--3-2-3-2-3-2-repeat 2 X's--------------------------------
E|-3-3-333-------------------------------------------------------------------
e|---------------------------------------------------------------------------
B|---------------------------------------------------------------------------
G|---------------------------------------------------------------------------
D|----------7-7-777--5-4-5-4-5-7-----------7-7-777---9--7--5-----------------
A|-5-5-555--5-5-555--3-2-3-2-3-5--5-5-555--5-5-555---7--5--3-----------------
E|-3-3-333------------------------3-3-333------------7--5--3-----------------
e|---------------------------------------------------------------------------
B|---------------------------------------------------------------------------
G|---------------------------------------------------------------------------
D|---------------------------------------------------------------------------
A|---------------------5555-5555-5555-5555--3333-3333-3333-3333--------------
E|-3333-3333-3333-3333-------------------------------------------------------
verse 2
e|---------------------------------------------------------------------------
B|---------------------------------------------------------------------------
G|---------------------------------------------------------------------------
D|------------------7-7-7-77-777-77--55-5-55-555-55-55-5-5-55-5-555-55-------
A|-5-5-5-55-555-55--5-5-5-55-555-55--33-3-33-333-33-33-3-3-33-3-333-33-------
E|-3-3-3-33-333-33-----------------------------------------------------------
E----------------------------------------------------------------------------
B|---------------------------------------------------------------------------
G|---------------------------------------------------------------------------
D|----------7-7-777--5-4-5-4-5-4---------------------------------------------
A|-5-5-555--5-5-555--3-2-3-2-3-2-repeat 2 X's--------------------------------
E|-3-3-333-------------------------------------------------------------------
e|---------------------------------------------------------------------------
B|---------------------------------------------------------------------------
G|---------------------------------------------------------------------------
D|----------7-7-777--5-4-5-4-5-7-----------7-7-777---9--7--5-----------------
A|-5-5-555--5-5-555--3-2-3-2-3-5--5-5-555--5-5-555---7--5--3-----------------
E|-3-3-333------------------------3-3-333------------7--5--3-----------------
i think that pretty much sums it up. listen to the cd for proper strumming, i
tried to tab it as would be played, but it's tough to do with out my guitar or
cd. any questions, comments, concerns, inquiries, or innuendos...please feel
free to drop me a line.
| / slide up
| slide down
| h hammer-on
| p pull-off
| ~ vibrato
| + harmonic
| x Mute note
=============================================================================





Ваше мнение



Капча