Eve 6
Think Twice
Tuning - E A D G B E
tab by : [email protected]
and corrections or questions, email
or msn me at [email protected]
Intro Chords :
e------------------------------------
B------------------------------------
G------------------4-4-4-4-----------
D--6-6-6-6-2-2-2-2-4-4-4-4-4-4-4-4---
A--6-6-6-6-2-2-2-2-2-2-2-2-4-4-4-4---
E--4-4-4-4-0-0-0-0---------2-2-2-2---
Intro Picking :
e-16-19~--12-14-16~--- X2 Not played on a guitar,
B--------------------- but almost as good.
G---------------------
D---------------------
A---------------------
E---------------------
Verse : Clean Palm Muted
e------------------------------------
B------------------------------------
G------------------4-4-4-4-----------
D--6-6-6-6-2-2-2-2-4-4-4-4-4-4-4-4---
A--6-6-6-6-2-2-2-2-2-2-2-2-4-4-4-4---
E--4-4-4-4-0-0-0-0---------2-2-2-2---
Little thing :
e-------------
B-------------
G--4-/-0------
D--4-/-0------
A-------------
E-------------
Chorus : Same as Verse, pick through it
e------------------------------------
B------------------------------------
G------------------4-4-4-4-----------
D--6-6-6-6-2-2-2-2-4-4-4-4-4-4-4-4---
A--6-6-6-6-2-2-2-2-2-2-2-2-4-4-4-4---
E--4-4-4-4-0-0-0-0---------2-2-2-2---
Palm muted, same time as Chorus
e-------------------------
B-------------------------
G-4-----4----4-----4------
D-4-----4----4-----4------
A------------2------------
E-4-----0----------2------
Bridge : 2:23
What is it you really want.....
e-----------------------------------------
B-----------------------------------------
G-----------------------------------------
D-2-2-2-2-2-2-2-2-4-4-4-4-4-4-4-4-4-4--6~-
A-2-2-2-2-2-2-2-2-4-4-4-4-4-4-4-4-4-4--6~-
E-0-0-0-0-0-0-0-0-2-2-2-2-2-2-2-2-2-2--4~-
e-------------------------
B-------------------------
G----4----4-----4-----4---
D---4-4--4-4---4-4---4-4--
A------------2------------
E-4-----0----------2------
Outro : Distorted
e------------------------------------
B------------------------------------
G------------------4-4-4-4-----------
D--6-6-6-6-2-2-2-2-4-4-4-4-4-4-4-4---
A--6-6-6-6-2-2-2-2-2-2-2-2-4-4-4-4---
E--4-4-4-4-0-0-0-0---------2-2-2-2---
End On :
e-------------
B-------------
G-------------
D-4-4--/0-----
A-4-4-/-0-----
E-2-2/--0-----





Ваше мнение



Капча