BTAB: Superhero Girl
Artist: Eve 6
Album: Eve 6
Author: Padrino ([email protected])
The bass starts with a slide right after the guitar plays the main riff 4
times.
G-------
D-------
A-------
E----8/0
Verse (play this a few times)
G------------------
D------------------
A------------------
E----0-0-3-5-5-5-3-
(Next play this, you will go back between these a couple times)
G---------------------------------
D---------------------------------
A-----------------0-0-0-0-0-0-0-0-
E-0-0-0-0-0-0-0-0-----------------
Then later it will change to this
G-----------------
D-----------------
A---------0-0-0-0-
E-0-0-0-0---------
Chorus
G----------------------------------------------------
D----------------------------------------------------
A--3-5-7---8-5--3-5-7---8-5--3-5-7---8-5--3-3-3-1-1-1
E----------------------------------------------------
One time in the song after the chorus the verse does this twice then goes
back to normal
G---------------------------
D---------------------------
A---------------------------
E--2-2-5-7-7--2-2-5-7-7-7-5-
This is most of the song, some of the parts can be played by hitting the
notes more than once to go with the guitar
picking. If you have a hard time reading it or want the whole thing, just
e-mail me.





Ваше мнение



Капча