Author/Artist: Eve 6
Title: Sunset Strip Bitch
Album: Horrorscope
Transcribed by: Matt Foster
Email: [email protected]

hey this is the 4th song i have tabbed off Horrorscope.
Email me comments/corrections.

----19------17------17--------------------------------------------------------
-12----9-10----9-10-----------------------------------------------------------
------------------------------------------------------------------------------
------------------------------------------------------------------------------
------------------------------------------------------------------------------
------------------------------------------------------------------------------
intro 4x

--------|---------------------------------------------------------------------
--------|-------------6-6-6-6-6-6-6-------------------------------------------
--------|---------------------------------------------------------------------
--------|---------------------------------------------------------------------
-9/////-|-0-4-0-4-0-4---------------------------------------------------------
-7/////-|-0-2-0-2-0-2---------------------------------------------------------
verse intro 4x (just play 9/7 slide the first time)

------------------------------------------------------------------------------
------------------------------------------------------------------------------
------------------------------------------------------------------------------
------------4-----------------------------------------------------------------
-4-4--4-4-x-2-----------------------------------------------------------------
-2-2--2-2-x-------------------------------------------------------------------
verse 7x

------------------------------------------------------------------------------
------------------------------------------------------------------------------
------------------------------------------------------------------------------
------------4-----------------------------------------------------------------
-4-4--4-4-x-2-4-3-3-----------------------------------------------------------
-2-2--2-2-x---2-1-1-----------------------------------------------------------
pre chorus 1x

------------------------------------------------------------------------------
------------------------------------------------------------------------------
------------------------------------------------------------------------------
--------------4--4-4-4--4--9--9-9-9--9--9--9-9-9--9---------------------------
-4--4-4-4--4--2--2-2-2--2--7--7-7-7--7--7--7-7-7--7---------------------------
-2--2-2-2--2------------------------------------------------------------------
chorus 2x

------------------------------------------------------------------------------
------------------------------------------------------------------------------
-7-7-7-7-7-7-7-7-7-7-7-7-7-7-7--10-10-10-10-10-10-10-10-10-10-10-10-10-10-10--
------------------------------------------------------------------------------
------------------------------------------------------------------------------
------------------------------------------------------------------------------
chorus outro 1x

--------|---------------------------------------------------------------------
--------|-------------6-6-6-6-6-6-6-------------------------------------------
--------|---------------------------------------------------------------------
--------|---------------------------------------------------------------------
-9/////-|-0-4-0-4-0-4---------------------------------------------------------
-7/////-|-0-2-0-2-0-2---------------------------------------------------------
verse intro 4x (just play 9/7 slide the first time)

------------------------------------------------------------------------------
------------------------------------------------------------------------------
------------------------------------------------------------------------------
------------4-----------------------------------------------------------------
-4-4--4-4-x-2-----------------------------------------------------------------
-2-2--2-2-x-------------------------------------------------------------------
verse 7x

------------------------------------------------------------------------------
------------------------------------------------------------------------------
------------------------------------------------------------------------------
------------4-----------------------------------------------------------------
-4-4--4-4-x-2-4-3-3-----------------------------------------------------------
-2-2--2-2-x---2-1-1-----------------------------------------------------------
pre chorus 1x

------------------------------------------------------------------------------
------------------------------------------------------------------------------
------------------------------------------------------------------------------
--------------4--4-4-4--4--9--9-9-9--9--9--9-9-9--9---------------------------
-4--4-4-4--4--2--2-2-2--2--7--7-7-7--7--7--7-7-7--7---------------------------
-2--2-2-2--2------------------------------------------------------------------
chorus 2x

------------------------------------------------------------------------------
------------------------------------------------------------------------------
-7-7-7-7-7-7-7-7-7-7-7-7-7-7-7--10-10-10-10-10-10-10-10-10-10-10-10-10-10-10--
------------------------------------------------------------------------------
------------------------------------------------------------------------------
------------------------------------------------------------------------------
chorus outro 1x

--------|---------------------------------------------------------------------
--------|-------------6-6-6-6-6-6-6-------------------------------------------
--------|---------------------------------------------------------------------
--------|---------------------------------------------------------------------
-9/////-|-0-4-0-4-0-4---------------------------------------------------------
-7/////-|-0-2-0-2-0-2---------------------------------------------------------
verse intro 7x (just play 9/7 slide the first time)

-17-17-17/////////////////////------------------------------------------------
------------------------------------------------------------------------------
------------------------------------------------------------------------------
------------------------------------------------------------------------------
------------------------------------------------------------------------------
------------------------------------------------------------------------------
play 1x into verse

----19------17------17--------------------------------------------------------
-12----9-10----9-10-----------------------------------------------------------
------------------------------------------------------------------------------
------------------------------------------------------------------------------
------------------------------------------------------------------------------
------------------------------------------------------------------------------
verse 4x

------------------------------------------------------------------------------
------------------------------------------------------------------------------
------------------------------------------------------------------------------
--------------4--4-4-4--4--9--9-9-9--9--9--9-9-9--9---------------------------
-4--4-4-4--4--2--2-2-2--2--7--7-7-7--7--7--7-7-7--7---------------------------
-2--2-2-2--2------------------------------------------------------------------
chorus 4x

------------------------------|-----------------------------------------------
------------------------------|-----------------------------------------------
-7-7-7-7-7-7-7-7-7-7-7-7-7-7-7|-10-10-10-10-10-10-10-10-10-10-10-10-10-10-10--
------------------------------|-----------------------------------------------
------------------------------|-----------------------------------------------
------------------------------|-----------------------------------------------
chorus outro 2x

------------------------------------------------------------------------------
------------------------------------------------------------------------------
------------------------------------------------------------------------------
-7-7--7-7--7-7----------------------------------------------------------------
-5-5--5-5--5-5----------------------------------------------------------------
------------------------------------------------------------------------------
ending 1x





Ваше мнение



Капча