T1: Geoff Morrissey, pmorrissey032snet.net, Eve 6, Showerhead, 1998

S1:
Drop-D Tuning
Intro: (Acoustic)
E-----------------------------------------------|
B-----------------------------------------------|
G.-9-9--9-9-9-5-5--5-5-5-4-4--4-4-4-7-7--7-7-7-.|
D.-9-9--9-9-9-5-5--5-5-5-5-5--5-5-5-7-7--7-7-7-.|
A--7-7--7-7-7-3-3--3-3-3-5-5--5-5-5-5-5--5-5-5--|
E-----------------------------------------------|

(Electric & Acoustic) |1. |2.
E------------------------|------------2-2--3-2--|------------0---------|
B------------------------|------------3-3--3-3--|------------0---------|
G.-9-9--x-x-x-5-5--x-x-x-|-4-4--x-x-x-2-2--2-2--|-4-4--x-x-x-2---------|
D.-9-9--x-x-x-5-5--x-x-x-|-5-5--x-x-x-0-0--0-0--|-5-5--x-x-x-2---------|
A--7-7--x-x-x-3-3--x-x-x-|-5-5--x-x-x-----------|-5-5--x-x-x-0---------|
E------------------------|----------------------|----------------------|

Verse: |1,3. |2.
E------------------------|------------2-2--3-2--|----------------0----|
B------------------------|------------3-3--3-3--|--------------3---3--|
G.-9-9--x-x-x-5-5--x-x-x-|-4-4--x-x-x-2-2--2-2-.|-4-4--x-x-x-2--------|
D.-9-9--x-x-x-5-5--x-x-x-|-5-5--x-x-x-0-0--0-0-.|-5-5--x-x-x----------|
A--7-7--x-x-x-3-3--x-x-x-|-5-5--x-x-x-----------|-5-5--x-x-x----------|
E------------------------|----------------------|---------------------|

|4.
E-|------------0--------|
B-|------------0--------|
G-|-4-4--x-x-x-2--------|
D-|-5-5--x-x-x-2--------|
A-|-5-5--x-x-x-0--------|
E-|---------------------|

Chorus: |1. |2. (Distortion)
E------------------|------------------|--------------|
B------------------|------------------|--------------|
G.-9-9-9-9-4-4-4-4-|-5-5-5-5-7-7-7-7-.|-7------------|
D.-9-9-9-9-4-4-4-4-|-5-5-5-5-7-7-7-7-.|-7------------|
A--7-7-7-7-2-2-2-2-|-3-3-3-3-5-5-5-5--|-5------------|
E------------------|------------------|--------------|

Verse: (Distortion) |1,3,5 |2.
E------------------------|------------2-2--3-2-|------------0-----5-----|
B------------------------|------------3-3--3-3-|------------0-------5---|
G--9-9--x-x-x-5-5--x-x-x-|-4-4--x-x-x-2-2--2-2-|-4-4--x-x-x-2---------5-|
D--9-9--x-x-x-5-5--x-x-x-|-5-5--x-x-x-0-0--0-0-|-5-5--x-x-x-2-----------|
A--7-7--x-x-x-3-3--x-x-x-|-5-5--x-x-x----------|-5-5--x-x-x-0-----------|
E------------------------|---------------------|------------------------|

|4. |
E-|--------------------------|------------0--------|
B-|------------------5-------|------------0--------|
G-|-4-4--x-x-x-----7---7-----|-4-4--x-x-x-2--------|
D-|-5-5--x-x-x-57-------7---|-5-5--x-x-x-2--------|
A-|-5-5--x-x-x-------------5-|-5-5--x-x-x-0--------|
E-|--------------------------|---------------------|

Chorus: (Two Guitars)
|1,3. |2,4
E------------------|------------------|-----------------|
B------------------|------------------|-----------------|
G.---------4-4-4-4-|-5-5-5-5---------.|-5-5-5-5-7-7-7-7-|
D.-2-2-2-2-4-4-4-4-|-5-5-5-5-0-0-0-0-.|-5-5-5-5-7-7-7-7-|
A--2-2-2-2-2-2-2-2-|-3-3-3-3-0-0-0-0--|-3-3-3-3-5-5-5-5-|
E--2-2-2-2---------|---------0-0-0-0--|-----------------|

Interlude: |1. |2.
E------------------|-----------------|------------------|
B------------------|-----------------|------------------|
G.---------5-5-5-5-|---------7-7-7-7-|---------7---7----|
D.-2-2-2-2-5-5-5-5-|-5-5-5-5-7-7-7-7-|-5-5-5-5-7---7----|
A--2-2-2-2-3-3-3-3-|-5-5-5-5-5-5-5-5-|-5-5-5-5-5---5----|
E--2-2-2-2---------|-5-5-5-5---------|-5-5-5-5----------|

Bridge: |1,2,3. |
E--3-------5-------|-----------------|-----------------|
B--3-------5-------|-----------------|-----------------|
G--5-------7-------|-----------------|-----------------|
D--5-------7-------|-7---------------|-7-7-7-7-7-7-7-7-|
A--3-------5-------|-7---7-6-7-7-6-7-|-7-7-7-7-7-7-7-7-|
E------------------|-7---7-6-7-7-6-7-|-7-7-7-7-7-7-7-7-|
PM---------

Repeat Chorus
Repeat Bridge but for last measure play:
E-----------------|
B-----------------|
G-----------------|
D-5-5-5-5-7-7-7-7-|
A-5-5-5-5-7-7-7-7-|
E-5-5-5-5-7-7-7-7-|Let Ring





Ваше мнение



Капча