Song Title: On the Roof Again
Artist: Eve 6
I dont know if this is the correct way to play this song. All I
know is that when I play along w/ the cd, it sounds right.
For the verses you play:
e-------------------------------------|
B-------------------------------------|
G------7---7-7-----------7---7-7------|
D-7-7--7---7-7--7---7-7--7---7-7--7---|
A-7-7--5---5-5--7---7-7--5---5-5--7---|
E-5-5-----------5---5-5-----------5---|
over and over again
the chorus is:
e------------------------------------|
B------------------------------------|
G----------------------7-7-----------|
D--7-7----2-2----4-4---7-7-----------|
A--7-7----2-2----4-4---5-5-----------|
E--5-5----0-0----2-2-----------------|
the bridge is:
e-------------------------------------|
B-------------------------------------|
G--7-7--------------------------------|
D--7-7---7----------------------------|
A--5-5---7----------------------------|
E--------5----------------------------|
over and over again.
You will have to listen to the song to get the timing and
everything right. And that's the song.
Questions, comments? e-mail me at: [email protected]





Ваше мнение



Капча