Author/Artist: Eve 6
Title: Leech
Transcribed by: Chris Arnold
Email: [email protected]

This song is fun, because you can go many different ways with it.

You can use chords: D, A, C, G
Or tab, of course:

Intro:
E-2-2-2-0-0-0-0-----0-2-0-----|
B-3-3-3-3-3-3---3---------3---|
G-2-2-2-2-2-2---------------2-|
D-----------------------------|
A-----------------------------|
E-----------------------------|

Verse:
E---|---|---|--------------------|---|---|---|
B---|---|---|--------------------|---|---|---|
G-7-|-2-|-5-|-----3----------5---|-7-|-2-|---|
D-7-|-2-|-5-|---3---3------5---5-|-7-|-2-|-5-|
A-5-|-0-|-3-|-1----------3-------|-5-|-0-|-5-|
E---|---|---|--------------------|---|---|-3-|

Chorus:
E----|---|----|---|
B----|---|----|---|
G----|---|----|---|
D-12-|-7-|-10-|-5-|
A-12-|-7-|-10-|-5-|
E-10-|-5-|--8-|-3-|

Bridge (slide to each power chord):
E---|---|---|---|
B---|---|---|---|
G---|---|---|---|
D-2-|-4-|-5-|-4-|
A-2-|-4-|-5-|-4-|
E-0-|-2-|-3-|-2-|

Play as you go into last verse:
E---|---|
B---|---|
G---|---|
D-8-|-7-|
A-8-|-7-|
E-6-|-5-|

====





Ваше мнение



Капча