Jet Pack- Eve 6
CD: Horrorscope
Tabber: Mitchell ([email protected])
Tuning: Standard

Took a while to figure it out, but here's the tab for one of the best tunes
off Horrorscope. If anybody knows more than I do, please send an email!

Intro:
e ------------------------------------------|--3~--
B ------------------------------------------|--3~--
G -----2---------2-----------2--------2-----|--0~--
D ---2---2-----2---2-------2---2----2---2---|--0~--
A -0-----------------0----------------------|--2~--
E -----------4-----------2--------2-------2-|--3~--

Verses: yes much of it is scratches
e -2~---x-x--0~---x-x--2~---x-x-x--2-2-2---x--3~--x-x--2~--x-x--0~--x-x-x--0-0-0--
B -3~---x-x--0~---x-x--3~---x-x-x--3-3-3---x--3~--x-x--3~--x-x--0~--x-x-x--0-0-0--
G -2~---x-x--2~---x-x--4~---x-x-x--2-2-2---x--0~--x-x--2~--x-x--2~--x-x-x--2-2-2--
D -0~--------2~--------4~----------0-0-0------0~-------0~-------2~---------2-2-2--
A -----------0~--------2~---------------------2~----------------0~---------0-0-0--
E --------------------------------------------3~----------------------------------

Chorus:
e ---------------------------------------------------------
B ---------------------------------------------------------
G -5-5-5-5-5-5-5-5-----------------------------------------
D -5-5-5-5-5-5-5-5--5-5-5-5-5-5-5-5--3-3-3-3-3-3-3-3--5-5--
A -3-3-3-3-3-3-3-3--5-5-5-5-5-5-5-5--3-3-3-3-3-3-3-3--5-5--
E ------------------3-3-3-3-3-3-3-3--1-1-1-1-1-1-1-1--3-3--

Last part of the chorus:
e -------------------------------------------------------------------
B -------------------------------------------------------------------
G -5-5-5-5-5-5-5-5---------------------------------------------------
D -5-5-5-5-5-5-5-5--5-5-5-5-5-5-5-5--3-3-3-3-3-3-3-3--2-2-2-2-2--7~--
A -3-3-3-3-3-3-3-3--5-5-5-5-5-5-5-5--3-3-3-3-3-3-3-3--2-2-2-2-2--7~--
E ------------------3-3-3-3-3-3-3-3--1-1-1-1-1-1-1-1--0-0-0-0-0--5~--

Bridge:
e --------------------------------------------------------
B --------------------------------------------------------
G -----------------------------------7-7-7-7-7-7-7-7-7-7--
D -7-7-7-7-7-7-7-7--6-6-6-6-6-6-6-6--7-7-7-7-7-7-7-7-7-7--
A -7-7-7-7-7-7-7-7--6-6-6-6-6-6-6-6--5-5-5-5-5-5-5-5-5-5--
E -5-5-5-5-5-5-5-5--4-4-4-4-4-4-4-4-----------------------

I dunno the solo, so just playing the verse chords can get through that part

Chords: D Asus Bm G E5 F5 G5 G#5 A5 C5 D5
e 2 0 2 3 x x x x x x x
B 3 0 3 3 x x x x x x x
G 2 2 4 0 x x x x x 5 7
D 0 2 4 0 2 3 5 6 7 5 7
A x 0 2 2 2 3 5 6 7 3 5
E x x x 3 0 1 3 4 5 x x

Tab originally from http://diehardtabs.tripod.com





Ваше мнение



Капча