Jesus Nitelite

Band: Eve 6
Album: Eve 6
Tuning: Standard
Pedals: Distortion
Tabbed by: Dana Corrigan ([email protected])

^= Palm Muted

Main Rythm Riff:

e|-----------------------------------------------------|
B|-----------------------------------------------------|
G|-----------------------------------7-7-7-7-7-7-7-7---|
D|-9-9-9-9-9-9-9-9--5-5-5-5-5-5-5-5--7-7-7-7-7-7-7-7---|
A|-9-9-9-9-9-9-9-9--5-5-5-5-5-5-5-5--5-5-5-5-5-5-5-5---|
E|-7-7-7-7-7-7-7-7--3-3-3-3-3-3-3-3--------------------|
^ ^ ^ ^ ^ ^ ^ ^ ^ ^ ^ ^ ^ ^ ^ ^ ^ ^

Continued...

------------------|
------------------|
------------------|
-7-7-7-7-7-7-7-7--|
-7-7-7-7-7-7-7-7--|
-5-5-5-5-5-5-5-5--|
^ ^ ^ ^ ^ ^





Ваше мнение



Капча