-------------------------------------------------------------------------------
Inside Out (Acoustic) - Eve 6
-------------------------------------------------------------------------------

Tabbed by: Mike Borland
Email: [email protected]

Tuning: Standard
*This isn't exact but you'll get the idea; at least 95% right*

Intro:
e|-----------------------------------------------------------|
B|-----------------------------------------------------------|
G|-X-XX-XX-XX-X--2--1--4---2--1------2--1--4---2--1----------|
D|-X-XX-XX-XX-X--2--2--4---2--2--4---2--2--4---2--2--4-------|
A|-X-XX-XX-XX-X--0--2--2---0--2--4---0--2--2---0--2--4-------|
E|-X-XX-XX-XX-X------------------2-------------------2-------|

Verse: 2X
e|-----------------------------------------------------------|
B|-----------------------------------------------------------|
G|-XX-44-XX----XX-22-XX------XX-44-XX----XX---XX-------------|
D|-XX-44-XX-44-XX-22-XX-22---XX-44-XX-44-XX-2-XX-22222-------|
A|-XX-22-XX-44-XX-00-XX-22---XX-22-XX-44-XX-2-XX-22222-------|
E|-XX----XX-22-XX----XX-00---XX----XX-22-XX-0-XX-00000-------|

Pre-Chorus:
e|------------------------------------------0-00-0--0-00-0-00-|
B|------------------------------------------0-00-0--0-00-0-00-|
G|-XX-44-XX----XX-22-XX------XX-44-XX----XX-2-22-2--2-22-2-22-|
D|-XX-44-XX-44-XX-22-XX-22---XX-44-XX-44-XX-2-22-2--2-22-2-22-|
A|-XX-22-XX-44-XX-00-XX-22---XX-22-XX-44-XX-0-00-0--0-00-0-00-|
E|-XX----XX-22-XX----XX-00---XX----XX-22-XX-0-00-0--0-00-0-00-|

Chorus:
e|-0000----0000----0000------------0000----0000--------|
B|-0000----0000----0000------------0000----0000--------|
G|-1111-XX-2222-XX-1111-XX------XX-1111-XX-2222-XX-----|
D|-2222-XX-2222-XX-2222-XX-4444-XX-2222-XX-2222-XX-4---|Repeat 1st half of this
A|-2222-XX-0000-XX-2222-XX-4444-XX-2222-XX-0000-XX-4---|
E|-0000-XX-0000-XX-0000-XX-2222-XX-0000-XX-0000-XX-2---|

Repeat Verse
Pre-Chorus
Chorus

Interlude: Palm Mute, Play 5X then play chorus:
e|--------------------------------|
B|--------------------------------|
G|-4-44-4-44-4-44--2-222----------|
D|-4-44-4-44-4-44--2-222--2-222---|
A|-2-22-2-22-2-22--0-000--2-000---|
E|------------------------0-000---|





Ваше мнение



Капча