Intro w/feedback
------------------------------------------------------------|
---0------------------------------(12)----------------------|
------------------------------------------------------------|
------------------------------------------------------------|
------------------------------------------------------------|
------------------------------------------------------------|
Verse F# Stay on F# Awhile E B Back to F# and Repeat 3x
-----------------------------------------------------------------------------|
--------------------------------------------------------2-2------------------|
--------------------------------------------1--1--1-----4-4------------------|
---4----4------4--4--4---------4--4---4-----2--2--2-----4-4------4-----------|
---4----4------4--4--4---------4--4---4-----2--2--2-----2-2------4-----------|
---2----2------2--2--2---------2--2---2-----0--0--0--------------2-----------|
Chorus How Much Longer Will I Try Before I Relize (Repeat Till End Of Chourus)
------------------------------------------------------------------|
------------------------------------------------------------------|
----6---6---6---6-------------4--4-4------------------------------|
----6---6---6---6-------------4--4-4---4--4--4--------------------|
----4---4---4---4---------0---2--2-2---4--4--4-4------------------|
--------------------------0------------2--2--2--------------------|
Interlude
-----9--9--9--9----9--9-9--9---9-9--9-9-9-9-9----------------|
-----7--7--7--7----7--7-7--7---7-7--7-7-7-7-7----------------|
-------------------6--6-6--6--------9-9-9-9-9----------------|
-------------------------------------------------------------|
-------------------------------------------------------------|
lyrics:
Drag this neurotic to hysterics
Leave him balked and unfulfilled holding inside outwardly patient 'till the time he'll call it
Alluring exotic twisted hero
Leaving him more lonely still
He waits around he's spun around and left without the power to stop it
Peers don't know what they can't see
They can't see inside of me
It's sickening how comforting the privacy of the mind can be
How much longer will I try before I realize I'm desperate in the situation that I'm in again
I'm exhausting yet another topic I've exhausted frequently with no regrets
Abstrse and lacking rational but making so much sense somehow
A stone has blocked my hourglass no progress made no time's run out
I'd almost rather have the latter
Save myself with sad defeat
a stone just broke my hourglass
I peel the skin that had me trapped
Peers don't know what they can't see
They can't see inside of me
It's sickening how comforting the privacy of the mind can be
How much longer will I try before I realize I'm desperate in the situation that I'm in again
I'm exhausting yet another topic I've exhausted frequently with no regrets
How much longer will I try before I realize I'm desperate in the situation that I'm in again
I'm exhausting yet another topic I've exhausted frequently with no regret





Ваше мнение



Капча