Band : Eve 6
Song : At Least We're Dreaming
Tabbed by : eve6_punk
E-Mail : [email protected]
This is one of the first tabs I've done and I put a lot of time listening to the
cd to figure this killer song out. Everything sounds right so if there are any
problems, send to [email protected] The new Eve 6 cd is one of the best ones
they've put out. If you don't have it, get it.
Tuning : Standard - E A D G B e
=================
- slide down
sus - sustain note
b - bend
Guitar(intro):
e -2-0-0-4-0-0-7-0-|
B -----------------|
G -----------------| x7
D -----------------|
A -----------------|
E -----------------|
e -2-0-0-4-0-0-7-0-7sus-|
B ------------------------|
G ------------------------|
D ------------------------|
A ------------------------|
E ------------------------|
Guitar(verse): palm muted
e ------------------------------------------|
B -----5-4-5-----55-4-5-----5-4-5-----5-4-5-|
G ------------------------------------------| x2
D ------------------------------------------|
A ------------------------------------------|
E ------------------------------------------|
e -----------------------------------------|
B -----5-4-5-----5-4-2-----5-4-5-----5-4-2-|
G -----------------------------------------|
D -----------------------------------------|
A -----------------------------------------|
E -----------------------------------------|
*open
e -----------------------------------------|
B -----------------------------------------|
G -----------------------------------------|
D -2-2---------7-7---------2-2---------7-7-|
A -2-2---------7-7---------2-2---------7-7-|
E -0-0---------5-5---------0-0---------5-5-|
e -----------------------------10b---------10-9-7-|
B ------------------------------------------------|
G ------------------------------------------------|
D -2-2---------7-7---------2-2---------7-7--------|
A -2-2---------7-7---------2-2---------7-7--------|
E -0-0---------5-5---------0-0---------5-5--------|
e ------------------------------------------------|
B ------------------------------------------------|
G ------------------------------------------------|
D -2-2---------7-7---------2-2---------7-7--------|
A -2-2--7-6-7--7-7--77-6-7-2-2--7-6-7--7-7--7-6---|
E -0-0---------5-5---------0-0---------5-5------9-|
(guitar 2)
e ---------------------------------------------------------|
B -------------------------------3b------------------------|
G ---------------------------------------------------------|
D -2-2---------7-7---------2-2-2-2-2-2-2-2-7-7-7-7-7-7-7-7-|
A -2-2--7-6-7--7-7--7-6-7--2-2-2-2-2-2-2-2-7-7-7-7-7-7-7-7-|
E -0-0---------5-5---------0-0-0-0-0-0-0-0-5-5-5-5-5-5-5-5-|
Guitar(chorus):
e -------------------------------------|
B -------------------------------------|
G -------------------------------------| x2
D ---------------------------2-2---2---|
A -9-9-9----7-7-7----2-2-2-------------|
E -7-7-7----5-5-5----0-0-0-------0---0-|
e ---------------------------------------------------|
B ---------------------------------------------------|
G ---------------------------------------------------|
D -9-9-9----7-7-7----2--2--2--2-------9-9-9----7-7-7-|
A -9-9-9----7-7-7----2--2--2--2-------9-9-9----7-7-7-|
E -7-7-7----5-5-5----0--0--0--0-------7-7-7----5-5-5-|
Guitar(verse 2): palm muted
e ------------------------------------------|
B -----5-4-5-----55-4-5-----5-4-5-----5-4-2-|
G ------------------------------------------|
D ------------------------------------------|
A ------------------------------------------|
E ------------------------------------------|
e ---------------------------10b---------10-9-7-|
B -----5-4-5-----55-4-5-------------------------|
G ----------------------------------------------|
D -----------------------2-2---------7-7--------|
A -----------------------2-2---------7-7--------|
E -----------------------0-0---------5-5--------|
e ----------------------------------------|
B ----------------------------------------|
G ----------------------------------------|
D ----------------------------------------|
A ------7-6-7-----------7-6-7-------7-6---|
E --------------------------------------9-|
*open
e -----------------------------------------------------|
B -----------------------------------------------------|
G -----------------------------------------------------|
D ---------------------2-2-2-2-2-2-2-2-7-7-7-7-7-7-7-7-|
A -77-6-7------7-6-7---2-2-2-2-2-2-2-2-7-7-7-7-7-7-7-7-|
E ---------------------0-0-0-0-0-0-0-0-5-5-5-5-5-5-5-5-|
Bridge : *split
Guitar 1 Guitar 2

e ------------------------------| e -2-0-0-4-0-0-7-0-|
B ------------------------------| B -----------------|
G ------------------------------| x4 G -----------------|x22
D -14----14-9----9-7--7----7--7-| D -----------------|
A -14----14-9----9-7--7----7--7-| A -----------------|
E -12----12-7----7-5--5----5--5-| E -----------------|
e --------------------------------|
B --------------------------------|
G --------------------------------|
D -14--14----9--9----7--7----7--7-|
A -14--14----9--9----7--7----7--7-|
E -12--12----7--7----5--5----5--5-|
e ---------------------------------------------------|
B ---------------------------------------------------|
G ---------------------------------------------------|
D -14--14----9--9----7-7-7-7-7-7-7-7-7-7-7-7-7-7-7-7-|
A -14--14----9--9----7-7-7-7-7-7-7-7-7-7-7-7-7-7-7-7-|
E -12--12----7--7----5-5-5-5-5-5-5-5-5-5-5-5-5-5-5-5-|
Guitar(chorus 2):
e -------------------------------------|
B -------------------------------------|
G -------------------------------------| x2
D ---------------------------2-2---2---|
A -9-9-9----7-7-7----2-2-2-------------|
E -7-7-7----5-5-5----0-0-0-------0---0-|
e ---------------------|
B ---------------------|
G ---------------------|
D -9-9-9----7-7-7----2-|
A -9-9-9----7-7-7----2-|
E -7-7-7----5-5-5----0-|
e ----------------|
B ----------------|
G ----------------| x4
D -9-9-9----7-7-7-|
A -9-9-9----7-7-7-|
E -7-7-7----5-5-5-|
e ------------------------------|
B ------------------------------|
G ------------------------------|
D -2-2-2----999-9----7--7--7--7-|
A -2-2-2----999-9----7--7--7--7-|
E -0-0-0----777-7----5--5--5--5-|
e --------------------------------|
B --------------------------------|
G --------------------------------|
D -2-2-2----9-9-9----7--7--7--7-5-|
A -2-2-2----9-9-9----7--7--7--7-5-|
E -0-0-0----7-7-7----5--5--5--5-3-|
e --------------------------------|
B --------------------------------|
G --------------------------------|
D -2-2-2----999-9----7--7--7--7-5-|
A -2-2-2----999-9----7--7--7--7-5-|
E -0-0-0----777-7----5--5--5--5-3-|
e ---------------------------
B ---------------------------|
G ---------------------------|
D -2-2-2----999-9----7--7--7-|
A -2-2-2----999-9----7--7--7-|
E -0-0-0----777-7----5--5--5-|
Outro : *Split
Guitar 1 Guitar 2
e -2-0-0-4-0-0-7-0-| e --------------------------------|
B -----------------| B --------------------------------|
G -----------------|x5 G --------------------------------|
D -----------------| D -2-2-2----7-7-7----5--5--5--5-3-|
A -----------------| A -2-2-2----7-7-7----5--5--5--5-3-|
E -----------------| E -0-0-0----7-7-7----5--5--5--5-3-|
e -2-0-0-4-0-0-7-0-2sus-| e ----------------------|
B ------------------------| B ----------------------|
G ------------------------| G ----------------------|
D ------------------------| D -2-2-2----9----7---2-|
A ------------------------| A -2-2-2----9----7---2-|
E ------------------------| E -0-0-0----7----5sus-|
Order : Intro
Verse
Chorus
Verse 2
Chorus
Bridge
Chorus 2
Outro
End





Ваше мнение



Капча