Author/Artist: Eve 6
Title: Amphetamines
Album: Horrorscope
Transcribed by: Matt Foster
Email: [email protected]
Email me corrections or comments
------------------------------------------------------------------------------
------------------------------------------------------------------------------
-------5-5-5-------5-5--------------------------------------------------------
-----------------------3-3----------------------------------------------------
-3-3-3-------3-3-3------------------------------------------------------------
------------------------------------------------------------------------------
intro 6x
------------------------------------------------------------------------------
------------------------------------------------------------------------------
-5---5------------------------------------------------------------------------
-5---5---5-5-5-5-5-5-5-5------------------------------------------------------
-3---3---3-3-3-3-3-3-3-3-5-5-5-5-5-5-5-5-7-7-7-7-7-7-7-7-3-3-3-3-3-3-3-3------
-------------------------3-3-3-3-3-3-3-3-5-5-5-5-5-5-5-5-1-1-1-1-1-1-1-1------
[________________palm muted_____________________________________]
------------------------------------------------------------------------------
------------------------------------------------------------------------------
------------------------------------------------------------------------------
-5-5-5-5-5-5-5-5-3-3-3-3-3-3-3-3-----------------5-5-5-5-5-5-5----------------
-3-3-3-3-3-3-3-3-1-1-1-1-1-1-1-1-3-3-3-3-3-3-3-3-5-5-5-5-5-5-5----------------
---------------------------------1-1-1-1-1-1-1-1-3-3-3-3-3-3-3----------------
[_______________palm muted_____________________] VERSE 1X
------------------------------------------------------------------------------
------------------------------------------------------------------------------
-------5-5-5-------5-5--------------------------------------------------------
-----------------------3-3----------------------------------------------------
-3-3-3-------3-3-3------------------------------------------------------------
------------------------------------------------------------------------------
chorus 3x
------------------------------------------------------------------------------
------------------------------------------------------------------------------
-xx-5-----xx-5-----xx-5--------5----------------------------------------------
-xx-5-5-3-xx-5-5-3-xx-5-5-7--3-5-5--------------------------------------------
-xx-3-5-3-xx-3-5-3-xx-3-5-7--3-3-5--------------------------------------------
------3-1------3-1------3-5--1---3--------------------------------------------
then this 1x
------------------------------------------------------------------------------
------------------------------------------------------------------------------
-------5-5-5---------5-5------------------------------------------------------
--------------------------3-3-------------------------------------------------
-3-3-3--------3-3-3-----------------------------------------------------------
------------------------------------------------------------------------------
2x
------------------------------------------------------------------------------
------------------------------------------------------------------------------
------------------------------------------------------------------------------
-5-5-5-5-5-5-5-5--------------------------------------------------------------
-3-3-3-3-3-3-3-3-5-5-5-5-5-5-5-5-7-7-7-7-7-7-7-7-3-3-3-3-3-3-3-3--------------
-----------------3-3-3-3-3-3-3-3-5-5-5-5-5-5-5-5-1-1-1-1-1-1-1-1--------------
------------------------------------------------------------------------------
------------------------------------------------------------------------------
------------------------------------------------------------------------------
-5-5-5-5-5-5-5-5-3-3-3-3-3-3-3-3-----------------5-5-5-5-5-5-5-5--------------
-3-3-3-3-3-3-3-3-1-1-1-1-1-1-1-1-3-3-3-3-3-3-3-3-3-3-3-3-3-3-3-3--------------
---------------------------------1-1-1-1-1-1-1-1------------------------------
verse 1x (all palm muted)
------------------------------------------------------------------------------
------------------------------------------------------------------------------
-xx-5-xx-5-------------------------------xx-5-xx-5-xx-3-xx-3------------------
-xx-5-xx-5-xx-5-xx-5-xx-7-xx-7-xx-3-xx-3-xx-5-xx-5-xx-3-xx-3-xx-3-xx-3--5-----
-xx-3-xx-3-xx-5-xx-5-xx-7-xx-7-xx-3-xx-3-xx-3-xx-3-xx-1-xx-1-xx-3-xx-3--5-----
-----------xx-3-xx-3-xx-5-xx-5-xx-1-xx-1---------------------xx-1-xx-1--3-----
then this 1x
------------------------------------------------------------------------------
------------------------------------------------------------------------------
-------5-5-5-------5-5--------------------------------------------------------
-----------------------3-3----------------------------------------------------
-3-3-3-------3-3-3------------------------------------------------------------
------------------------------------------------------------------------------
chorus 3x
------------------------------------------------------------------------------
------------------------------------------------------------------------------
-xx-5-----xx-5-----xx-5--------5----------------------------------------------
-xx-5-5-3-xx-5-5-3-xx-5-5-7--3-5-5--------------------------------------------
-xx-3-5-3-xx-3-5-3-xx-3-5-7--3-3-5--------------------------------------------
------3-1------3-1------3-5--1---3--------------------------------------------
then this 1x
------------------------------------------------------------------------------
------------------------------------------------------------------------------
----------------------------------5-5-----------------------------------------
-xxx-13-14-xxx-13-14-xxx-13-14-xx-5-5-xx-5-5----------------------------------
-xxx-------xxx-------xxx-------xx-3-3-xx-5-5----------------------------------
-xxx-------xxx-------xxx-------xx-----xx-3-3----------------------------------
3x [pm.] [pm.]
------------------------------------------------------------------------------
------------------------------------------------------------------------------
------------------------------------------------------------------------------
-xxx-13-14-xxx-13-14-xxx-13-14------------------------------------------------
-xxx-------xxx-------xxx------------------------------------------------------
-xxx-------xxx-------xxx------------------------------------------------------
then this 2x
------------------------------------------------------------------------------
------------------------------------------------------------------------------
------------------------------------------------------------------------------
-----------------------------------------------------------5------------------
-3-3-3-3-3-3-3-3-3-3-3-3-3-3-5-5-5-5-5-5-5-5-5-5-5-5-5-5---5------------------
-1-1-1-1-1-1-1-1-1-1-1-1-1-1-3-3-3-3-3-3-3-3-3-3-3-3-3-3---3------------------
[__________________palm muted__________________________] PLAY THIS 1X
------------------------------------------------------------------------------
------------------------------------------------------------------------------
-5-----5-----5-------5--------------------------------------------------------
-5-5-3-5-5-3-5-5-7-3-5-5------------------------------------------------------
-3-5-3-3-5-3-3-5-7-3-3-5------------------------------------------------------
---3-1---3-1---3-5-1---3------------------------------------------------------
play this 1x
------------------------------------------------------------------------------
------------------------------------------------------------------------------
-------5-5-5-------5-5--------------------------------------------------------
-----------------------3-3----------------------------------------------------
-3-3-3-------3-3-3------------------------------------------------------------
------------------------------------------------------------------------------
play this 3x
------------------------------------------------------------------------------
------------------------------------------------------------------------------
---3--3----5------------------------------------------------------------------
-3-3--3-5--5------------------------------------------------------------------
-3-1--1-5--3------------------------------------------------------------------
-1------3---------------------------------------------------------------------
ending 1x





Ваше мнение



Капча