Whisper - Evanescence
Tabbed by Tinboy

Tuning - drop D

E B G D A D

Intro

|------------------------------------------------------------------------|
|------------------------------------------------------------------------|
|------------------------------------------------------------------------|
|------------------------------------------------------------------------| x2
|-----5-5-6----5-5-6------3-----5-5-6----5--8-6-5--5h6-3-----------------|
|---0--------0--------3h5-----0--------0---------------------------------|

Pre-chorus

|------------------------------------------------------------------------|
|------------------------------------------------------------------------|
|------------------------------------------------------------------------|
|------------------------------------------------------------------------|
|---5v/7v/10v8v-(hold-note)---------------------------------------------|
|------------------------------------------------------------------------|

Chorus

|------------------------------------------------------------------------|
|------------------------------------------------------------------------|
|------------------------------------------------------------------------|
|---0--8-8--10---8--5--3-3-2--3-2-2--3-2-2--3-2-2--3-2-0-----------------| x2
|---0--8-8--10---8--5--3-3-2--3-2-2--3-2-2--3-2-2--3-2-0-----------------|
|---0--8-8--10---8--5--3-3-2--3-2-2--3-2-2--3-2-2--3-2-0-----------------|

Bridge

|------------------------------------------------------------------------|
|------------------------------------------------------------------------|
|------------------------------------------------------------------------|
|------------------------------------------------------------------------|
|-----5-5-6----5-5-6------3-----5-5-6----5--8-6-5--5h6-3-----------------|
|---0--------0--------3h5-----0--------0---------------------------------|

wait for 2 bars then go into:

Verse

|------------------------------------------------------------------------|
|------------------------------------------------------------------------|
|------------------------------------------------------------------------|
|------------------------------------------------------------------------| x2
|-----5-5-6----5-5-6------3-----5-5-6----5--8-6-5--5h6-3-----------------|
|---0--------0--------3h5-----0--------0---------------------------------|

Pre-chorus

|------------------------------------------------------------------------|
|------------------------------------------------------------------------|
|------------------------------------------------------------------------|
|------------------------------------------------------------------------|
|---5v/7v/10v8v-(hold-note)---------------------------------------------|
|------------------------------------------------------------------------|

Chorus

|------------------------------------------------------------------------|
|------------------------------------------------------------------------|
|------------------------------------------------------------------------|
|---0--8-8--10---8--5--3-3-2--3-2-2--3-2-2--3-2-2--3-2-0-----------------| x2
|---0--8-8--10---8--5--3-3-2--3-2-2--3-2-2--3-2-2--3-2-0-----------------|
|---0--8-8--10---8--5--3-3-2--3-2-2--3-2-2--3-2-2--3-2-0-----------------|

Middle section

Strings transposed to guitar
|------------------------------------------------------------------------|
|------------------------------------------------------------------------|
|------------------------------------------------------------------------|
|---7p5---5-7------------------------------------------------------------|
|-------7----------------------------------------------------------------|
|------------------------------------------------------------------------|

Gtr. 1
|------------------------------------------------------------------------|
|------------------------------------------------------------------------|
|------------------------------------------------------------------------|
|------------------------------------------------------------------------| x2
|---5v/7v/10v8v-(hold-note)---------------------------------------------|
|------------------------------------------------------------------------|
^ last time play 5th fret and hold

Gtr.2
|------------------------------------------------------------------------|
|------------------------------------------------------------------------|

|------------------------------------------------------------------------|
|------------------------------------------------------------------------| x4
|-----0-------0----------------------------------------------------------|
|---0-0-x-0-0-0----------------------------------------------------------|
PM - - -

Solo

|------------------------------------------------------------------------|
|------------------------------------------------------------------------|
|------------------------------------------------------------------------|
|---7-7-7-7p5-7/8-8-8-87-5-3h5---5-5-5-5p3-5/7-7-7-75-3h5--------------|
|------------------------------------------------------------------------|
|------------------------------------------------------------------------|

|------------------------------------------------------------------------|
|------------------------------------------------------------------------|
|------------------------------------------------------------------------|
|----3-3-3-3p2-3/5-5-5-5/3-2---3-2-2--3-2-2--3-2-2--3-2-2--3-2-2-0-------|
|------------------------------------------------------------------------|
|------------------------------------------------------------------------|

|------------------------------------------------------------------------|
|------------------------------------------------------------------------|
|------------------------------------------------------------------------|
|---0-0-0-2-3/5-5-53-3-2---7-7-7-8-7--10-10-10-8-7----------------------|
|------------------------------------------------------------------------|
|------------------------------------------------------------------------|

|------------------------------------------------------------------------|
|------------------------------------------------------------------------|
|------------------------------------------------------------------------|
|---3-3-3--5-5-7--2-2-2--3-3-5--7v (hold-note)---------------------------|
|------------------------------------------------------------------------|
|------------------------------------------------------------------------|

Chorus

|------------------------------------------------------------------------|
|------------------------------------------------------------------------|
|------------------------------------------------------------------------|
|---0--8-8--10---8--5--3-3-2--3-2-2--3-2-2--3-2-2--3-2-0-----------------| x2
|---0--8-8--10---8--5--3-3-2--3-2-2--3-2-2--3-2-2--3-2-0-----------------|
|---0--8-8--10---8--5--3-3-2--3-2-2--3-2-2--3-2-2--3-2-0-----------------|
^ first time after solo, come in on this note

Outro - repeat untill fade

|------------------------------------------------------------------------|
|------------------------------------------------------------------------|
|------------------------------------------------------------------------|
|------------------------------------------------------------------------|
|-----0-------0----------------------------------------------------------|
|---0-0-x-0-0-0----------------------------------------------------------|
PM - - -

that's all

email - [email protected]




Ваше мнение



Капча