-------------------------------------------------------------------------------
TOURNIQUET - Evanescence
-------------------------------------------------------------------------------
Tabbed by: Marla
Email:[email protected]
Tuning: Standard
Intro:
e|---------------------------------------------------------------------------|
B|---------------------------------------------------------------------------|
G|--0--------------0---------------0-------------2p0--2p0--------------------|
D|-2---2-4---0----2----2-4---2----2----2-4----0-----4----4/54p0-------------|
A|---------------------------------------------------------------------------|
E|0-0-0---0-0--0-0--0-0---0-0--0-0--0-0----0-0--0----------------------------|
x x x x x x x x x x x x x x x x x REPEAT 1x
Lick during the REPEATED intro
e|-15-14-19~14/1514-10-5~--------------------------------------------------|
B|---------------------------------------------------------------------------|
G|---------------------------------------------------------------------------|
D|---------------------------------------------------------------------------|
A|---------------------------------------------------------------------------|
E|---------------------------------------------------------------------------|
Verse:
e|---------------------------------------------------------------------------|
B|---------------------------------------------------------------------------|
G|--9-x--9--5-x--5--7x--7/-8-------------------------------------------------|
D|--9-x--9--5-x--5--7x--7/-8-------------------------------------------------|
A|-7--x-7--3--x-3--5-x-5-/6--------------------------------------------------|
E|---------------------------------------------------------------------------|
REPEAT 1x
**LISTEN FOR CORRECT STRUMMING AFTER THE MUTES**
Chorus:
Guitar 1
e|---------------------------------------------------------------------------|
B|---------------------------------------------------------------------------|
G|--9---5---7-----------------9----------------------------------------------|
D|--9---5---7---after-repeat--9----------------------------------------------|
A|-7---3---5-----------------7-----------------------------------------------|
E|---------------------------------------------------------------------------|
Guitar 2 during the chorus - same as the intro REPEAT 1x

BACK TO THE VERSE (strum differently)

BACK TO THE CHORUS (leave out the chord after the repeat)
Bridge:
e|---|-----BRACKET------|-----------------------------------------------------|
B|---|------------------|-----------------------------------------------------|
G|--9|-999999--9999-9/10|------------99999999/1010109------------------------|
D|--9|-999999--9999-9/10|repeat 3xs--99999999/1010109-go-back-to-the-BRACKET-|
A|-7-|777777--7777-7/8--|-----------77777777/-8-8-87-------------------------|
E|---|-----BRACKET------|-----------------------------------------------------|
e|---------------------------------------------------------------------------|
B|---------------------------------------------------------------------------|
G|-------------------10--1010109--------------------------------------------|
D|--I-WANT-TO-DIE!!--10--1010109--------------------------------------------|
A|------------------8----8-8-87---------------------------------------------|
E|---------------------------------------------------------------------------|
BACK TO THE CHORUS
e|-15-14-19~14/1514-10-5~-87~---------------------------------------------|
B|---------------------------------------------------------------------------|
G|---------------------------------------------------------------------------|
D|---------------------------------------------------------------------------|
A|---------------------------------------------------------------------------|
E|---------------------------------------------------------------------------|
| / slide up
| slide down
| p pull-off
| ~ vibrato
| x Mute note
**If you have any questions, corrections or comments, feel free to e-mail me**
===============================================================================




Ваше мнение



Капча