Artist: Evanescence
Music: My Last Breath
CD: Fallen 2003
Tabbed By: Ricardo Dias, Lisbon
intro
|-----------------------------------------------------------|
|-----------------------------------------------------------|
|-----------------------------------------------------------|
|-----------------------------------------------------------|
|-------------5-5--1-1--3-----------------5-5--1-1--3----5--|
|--1h3p1p0----5-5--1-1--3------1h3p1p0----5-5--1-1--3----5--|
|-------------3-3--1-1--1-----------------3-3--1-1--1----3--|
chorus
|-----------------------------------------------------------|
|-----------------------------------------------------------|
|-----------------------------------------------------------|
|-----------------------------------------------------------| x2
|-------------5-5--1-1--3-----------------5-5--1-1--3----5--|
|--1h3p1p0----5-5--1-1--3------1h3p1p0----5-5--1-1--3----5--|
|-------------3-3--1-1--1-----------------3-3--1-1--1----3--|
bridge after chorus
|------------------|------------------------|
|------------------|------------------------|
|------------------|------------------------|
|-1-1-1-1-1-1-1-1--|3-0-0-1-0-0--0-0-0-0----|
|-1-1-1-1-1-1-1-1--|3-0-0-1-0-0--0-0-0-0----|
|-1-1-1-1-1-1-1-1--|3-0-0-1-0-0--0-0-0-0----|




Ваше мнение



Капча