e---------------------------------------------
B-------10h12-10---10/9-----------------------
G-11h13------------------11---11h14-13-13p11-9
D---------------------------------------------
A---------------------------------------------
E---------------------------------------------
e----------------------------------9--9h10-9--------------
B-14-12-10/9/10---10/9------10h12------------14-12-10/9/10
G----------------------11---------------------------------
D---------------------------------------------------------
A---------------------------------------------------------
E---------------------------------------------------------
This is my first attempt at a tab. The band version of this song is so good, that I had
to try and tab out the solo b/c I can't seem to find it anywhere. You can fool around
w/the sliding/hammering to make it sound to your liking. I'm pretty sure the notes are
accurate though. Enjoy!




Ваше мнение



Капча