-------------------------------------------------------------------------------
My Immortal (Band Version - Solo Only) - Evanescence
-------------------------------------------------------------------------------
Tabbed by: FSP
Email: [email protected]
Tuning: Standard (I decided to have this tab play alongside the acoustic
version of the whole song, hence the use of standard turning)
e|---------------------------------------------------------------------------|
B|---------------------------------------------------------------------------|
G|-----------------------------------------6p4-2p1---------------------------|
D|---4h6-6h7-7b-7-6h7-----4h7-6-7p6-----------------7-6-4h6-4----------------|
A|--------------------5b-------------7p4-------------------------------------|
E|---------------------------------------------------------------------------|
e|---------------------------------------------------------------------------|
B|---------------------------------------------------------------------------|
G|---------4b---6h7p6b----6h7p6-4h6p4----------------------------------------|
D|---4h6h7----------------------------7p6h7b---------------------------------|
A|---------------------------------------------------------------------------|
E|---------------------------------------------------------------------------|
| b bend
| h hammer-on
| p pull-off
Transcribed using Chronotron Plugin for Winamp.
Any questions, comments, Spam or Emails for viagra (just kidding), dont
hesitate to mail me.
===============================================================================




Ваше мнение



Капча