Song Title: I must be dreaming
Band: Evanescence
Album: Unknown
Year: 2001-2002 (demo)
+Alice+ B.A.V.G.
(T.D.P.C)
P.M.- Palm Mute
/ - Slide

Standard:
E B G D A E
Intro/Verse
|------------------------------------------|
|------------------------------------------|
|---------11-------12---11------7------7---|
|---9-9-9----9-9-9----9-----5-5----5-5-----|
|------------------------------------------|
|------------------------------------------|
Verse (0:39)
|-------------------------------------------------------------------|
|-------------------------------------------------------------------|
|---4-4--4-4--4--4-4--5-5-54----4-4--4-4--4--4-4--7-7-74----------|
|---4-4--4-4--4--4-4--5-5-54----4-4--4-4--4--4-4--7-7-74----------|
|---2-2--2-2--2--2-2--3-3-32----2-2--2-2--2--2-2--5-5-52----------|
|---2-2--2-2--2--2-2--3-3-32----2-2--2-2--2--2-2--5-5-52----------|
|-------------------------------------------------------------------|
|-------------------------------------------------------------------|
|---4-4--4-4--4--4-4--5-5-54--5-5/7-7-7/9-9-9-9-9/11-11-11-11-11---|
|---4-4--4-4--4--4-4--5-5-54--x-x-x-x-x-x-x-x-x-x-x—--x—-x-—x--x---|
|---2-2--2-2--2--2-2--3-3-32--3-3/5-5-5/7-7-7-7-7/9---9--9—-9--9---|
|---2-2--2-2--2--2-2--3-3-3-----------------------------------------|
Chorus
|--------------------------------------|
|--------------------------------------|
|---4-4-4/11-11-11-117--7-75-5-54---|
|---x-x-x-x--x---x—-x-x--x-x-x-x-x-x---|
|---2-2-2/9--9---9—-95--5-53-3-32---|
|--------------------------------------| x 3
Then
|----------------------------------|
|----------------------------------|
|---4-4--4-4--4--4-4--7-7-74------|
|---4-4--4-4--4--4-4--7-7-74------|
|---2-2--2-2--2--2-2--5-5-52------|
|---2-2--2-2--2--2-2--5-5-5--------|
After 1st. Chorus (1:25)
|---------------12---------------------------------------------------------|
|---12-12-14-15----15-14---------------------------------------------------|
|-------------------------16-14--------------------------------------------|
|------------------------------16-14-16---16-16-17-16-14-------------------|
|--------------------------------------------------------17-16-14—12-14----|
|--------------------------------------------------------------------------|
|----------------------------12-14--14-14^-----------|
|------------------------14--------------------------|
|---------------12-14-16-----------------------------|
|------12-14-16--------------------------------------|
|---16-----------------------------------------------|
|----------------------------------------------------|
After 2nd. Chorus (2:42)
|--------------------------------------------------------------------------|
|--3-3-3-2/3-3-2-3-3-3---10-10-11-11---3-3-3-2/3-3-2-3-3/2--3--0-0-0-------|
|--4-4-4-4-4-4-4-4-4-4---10-10-11-11---4-4-4-4-4-4-4-4-4-4--4—-4-4-4-------|
|--------------------------------------------------------------------------|
|--------------------------------------------------------------------------|
|--------------------------------------------------------------------------|
|---------------------------------------------------------------------------|
|--3-3-3-2/3-3-2-3-3-3---10-10-11-11---13-13--14-14-16-16-17-17-18-18-2011-|
|--4-4-4-4-4-4-4-4-4-4---10-10-11-11---13-13--14-14-16-16-17-17-18-18-2011-|
|---------------------------------------------------------------------------|
|---------------------------------------------------------------------------|
|---------------------------------------------------------------------------|




Ваше мнение



Капча