Evanescence
Haunted (solo)
Fallen (2003)
TUNING - D A D G B E (Drop D)
Tabbed by [email protected]
(#) - Bend up to that note
h - Hammer on
p - Pull off
E|-----------------------------------------------------------------------|
B|-5-5-5-5-5--7-5--4-4h5p4---4-------------------------------------------|
G|-------------------------6---6p4-6-6(7)--------------------------------|
D|-----------------------------------------4h6-6(7)-4h6-4h6p4---4h6p4---4|
A|------------------------------------------------------------6-------6--|
D|-----------------------------------------------------------------------|
E|---------------------------------------------------------------------|
B|-----------------------------5-4---4-4h5p4---4h5p4---4h5p4---4h5p4---|
G|---------------4-6-4h6-6(7)------6---------6-------6-------6-------6-|
D|---------4h6h7-------------------------------------------------------|
A|-4-4h6h7-------------------------------------------------------------|
D|---------------------------------------------------------------------|
E|-----------------------------------------------------------|
B|4h5p4---4h5p4h5--7-5-4-5-4-4h5-4-5-7-5-7-9h10-9-7-7h9p7-5-7|
G|------6----------------------------------------------------|
D|-----------------------------------------------------------|
A|-----------------------------------------------------------|
D|-----------------------------------------------------------|




Ваше мнение



Капча