Artist Name: Evanescence
Tab Name: Father Away

Intro guitar 1 :
------------------------------------------------------------------------------I
-13-13-13-------13-13-12-12-12-------12-12-10-(play 15 times)-----------------I
----------9-9-9----------------9-9-9------------------------------------------I
------------------------------------------------------------------------------I
------------------------------------------------------------------------------I
------------------------------------------------------------------------------I
------------------------------------------------------------------------------I
-13-13-13-------13-13-15-15-15-12-12-12-13-13-17-(play 15 times)--------------I
----------9-9-9---------------------------------------------------------------I
------------------------------------------------------------------------------I
------------------------------------------------------------------------------I
------------------------------------------------------------------------------I

chorus guitar 1 : 0 min 12 sec :
------------------------------------------------------------------------------I
-13-13-13-------13-13-12-12-12-------12-12-10-(play 15 times)-----------------I
----------9-9-9----------------9-9-9------------------------------------------I
------------------------------------------------------------------------------I
------------------------------------------------------------------------------I
------------------------------------------------------------------------------I
------------------------------------------------------------------------------I
-13-13-13-------13-13-15-15-15-12-12-12-13-13-17-(play 15 times)--------------I
----------9-9-9---------------------------------------------------------------I
------------------------------------------------------------------------------I
------------------------------------------------------------------------------I
------------------------------------------------------------------------------I

chorus guitar 2 : 0 min 12 sec :
------------------------------------------------------------------------------I
------------------------------------------------------------------------------I
------------------------------------------------------------------------------I
------------------------------------------------------------------------------I
-7-7-7---9-9-9---9-/-10-/9---12-12-12-12-12--10-10-10-10---9-9-9-9-/-10-10----I
-5-5-5-0-7-7-7-0-7-/-8-/-7---10-10-10-10-10--8--8--8--8----7-7-7-7-/-8--8-----I
------------------------------------------------------------------------------I
------------------------------------------------------------------------------I
------------------------------------------------------------------------------I
------------------------------------------------------------------------------I
-7-7-7---9-9-9---9-/-10-/9---12-12-12-12-12--10-10-10-10---9-9-9-9-/-5-5------I
-5-5-5-0-7-7-7-0-7-/-8-/-7---10-10-10-10-10--8--8--8--8----7-7-7-7-/-3-3------I

chorus guitar 1 : 0 min 46 sec :
-----------------------------------------------------------------------------I
-13-13-13-------13-13-12-12-12-------12-12-10-(play 15 times)----------------I
----------9-9-9----------------9-9-9-----------------------------------------I
-----------------------------------------------------------------------------I
-----------------------------------------------------------------------------I
-----------------------------------------------------------------------------I
play 2 times
-----------------------------------------------------------------------------I
-13-13-13-------13-13-15-15-15-12-12-12-13-13-17-(play 15 times)-------------I
----------9-9-9--------------------------------------------------------------I
-----------------------------------------------------------------------------I
-----------------------------------------------------------------------------I
-----------------------------------------------------------------------------I

chorus guitar 2 : 0 min 46 sec :
-----------------------------------------------------------------------------I
-----------------------------------------------------------------------------I
-----------------------------------------------------------------------------I
-----------------------------------------------------------------------------I
-7-7-7---9-9-9---9-/-10-/9---12-12-12-12-12--10-10-10-10---9-9-9-9-/-10-10---I
-5-5-5-0-7-7-7-0-7-/-8-/-7---10-10-10-10-10--8--8--8--8----7-7-7-7-/-8--8----I
play 2 times
-----------------------------------------------------------------------------I
-----------------------------------------------------------------------------I
-----------------------------------------------------------------------------I
-----------------------------------------------------------------------------I
-7-7-7---9-9-9---9-/-10-/9---12-12-12-12-12--10-10-10-10---9-9-9-9-/-5-5-----I
-5-5-5-0-7-7-7-0-7-/-8-/-7---10-10-10-10-10--8--8--8--8----7-7-7-7-/-3-3-----I

Verse guitar 1 : 1 min 09 sec :
-----------------------------------------------------------------------------I
-----------------------------------------------------------------------------I
-----------------------------------------------------------------------------I
----------------------------(play 8 times)-----------------------------------I P.M
-00000----0000-----00--------------------------------------------------------I
-00000----0000-----00--------------------------------------------------------I

Verse guitar 2 : 1 min 09 sec :
-----------------------------------------------------------------------------I
-----------------------------------------------------------------------------I
-----------------------------------------------------------------------------I
----------------------------(play 8 times)-----------------------------------I P.M
-00-------00---0-00----------------------------------------------------------I
-00-------00---0-00----------------------------------------------------------I

chorus guitar 1 : 1 min 31 sec :
-----------------------------------------------------------------------------I
-13-13-13-------13-13-12-12-12-------12-12-10-(play 15 times)----------------I
----------9-9-9----------------9-9-9-----------------------------------------I
-----------------------------------------------------------------------------I
-----------------------------------------------------------------------------I
-----------------------------------------------------------------------------I
-----------------------------------------------------------------------------I
-13-13-13-------13-13-15-15-15-12-12-12-13-13-17-(play 15 times)-------------I
----------9-9-9--------------------------------------------------------------I
-----------------------------------------------------------------------------I
-----------------------------------------------------------------------------I
-----------------------------------------------------------------------------I

chorus guitar 2 : 1 min 31 sec :
-----------------------------------------------------------------------------I
-----------------------------------------------------------------------------I
-----------------------------------------------------------------------------I
-----------------------------------------------------------------------------I
-7-7-7---9-9-9---9-/-10-/9---12-12-12-12-12--10-10-10-10---9-9-9-9-/-10-10---I
-5-5-5-0-7-7-7-0-7-/-8-/-7---10-10-10-10-10--8--8--8--8----7-7-7-7-/-8--8----I
-----------------------------------------------------------------------------I
-----------------------------------------------------------------------------I
-----------------------------------------------------------------------------I
-----------------------------------------------------------------------------I
-7-7-7---9-9-9---9-/-10-/9---12-12-12-12-12--10-10-10-10---9-9-9-9-/-5-5-----I
-5-5-5-0-7-7-7-0-7-/-8-/-7---10-10-10-10-10--8--8--8--8----7-7-7-7-/-3-3-----I
chorus guitar 2 : 1 min 52 sec :
-----------------------------------------------------------------------------I
-----------------------------------------------------------------------------I
-----------------------------------------------------------------------------I
-----------------------------------------------------------------------------I
-7-7-7---9-9-9---9-/-10-/9---12-12-12-12-12--10-10-10-10---9-9-9-9-/-10-10---I
-5-5-5-0-7-7-7-0-7-/-8-/-7---10-10-10-10-10--8--8--8--8----7-7-7-7-/-8--8----I
-----------------------------------------------------------------------------I
-----------------------------------------------------------------------------I
-----------------------------------------------------------------------------I
-----------------------------------------------------------------------------I
-7-7-7---9-9-9---9-/-10-/9---12-12-12-12-12--10-10--2-2-2-2-2-2-2-2----------I
-5-5-5-0-7-7-7-0-7-/-8-/-7---10-10-10-10-10--8--8---0-0-0-0-0-0-0-0----------I
_______________
P.M

Interlude guitar 1 : 1 min 54 sec :
-----------------------------------------------------------------------------I
-----1-0-----------1-0----------1-0----------0-1-----------------------------I
---2-----2-------2-----2------2-----2------0---------------------------------I
-2-------------2------------2------------2-------------(play 2 times)--------I
-----------------------------------------------------------------------------I
-----------------------------------------------------------------------------I
Interlude guitar 2 : 1 min 54 sec :
-----------------------------------------------------------------------------I
-----------------------------------------------------------------------------I
------2--------------5-------------7----------9------------------------------I
------2--------------5-------------5----------7---------(play 2 times)-------I
------0--------------3-------------5----------7------------------------------I
-----------------------------------------------------------------------------I

chorus guitar 1 : 2 min 20 sec :
-----------------------------------------------------------------------------I
-13-13-13-------13-13-12-12-12-------12-12-10-(play 15 times)----------------I
----------9-9-9----------------9-9-9-----------------------------------------I
-----------------------------------------------------------------------------I
-----------------------------------------------------------------------------I
-----------------------------------------------------------------------------I
play 7 times
-----------------------------------------------------------------------------I
-13-13-13-------13-13-15-15-15-12-12-12-13-13-17-(play 15 times)-------------I
----------9-9-9--------------------------------------------------------------I
-----------------------------------------------------------------------------I
-----------------------------------------------------------------------------I
-----------------------------------------------------------------------------I

chorus guitar 2 : 2 min 20 sec :
-----------------------------------------------------------------------------I
-----------------------------------------------------------------------------I
-----------------------------------------------------------------------------I
-----------------------------------------------------------------------------I
-7-7-7---9-9-9---9-/-10-/9---12-12-12-12-12--10-10-10-10---9-9-9-9-/-10-10---I
-5-5-5-0-7-7-7-0-7-/-8-/-7---10-10-10-10-10--8--8--8--8----7-7-7-7-/-8--8----I
play 7 times
-----------------------------------------------------------------------------I
-----------------------------------------------------------------------------I
-----------------------------------------------------------------------------I
-----------------------------------------------------------------------------I
-7-7-7---9-9-9---9-/-10-/9---12-12-12-12-12--10-10-10-10---9-9-9-9-/-5-5-----I
-5-5-5-0-7-7-7-0-7-/-8-/-7---10-10-10-10-10--8--8--8--8----7-7-7-7-/-3-3-----I

outro guitar 1 : 3 min 39 sec :
-----------------------------------------------------------------------------I
-13-13-13-------13-13-12-12-12-------12-12-10-(play 15 times)----------------I
----------9-9-9----------------9-9-9-----------------------------------------I
-----------------------------------------------------------------------------I
-----------------------------------------------------------------------------I
-----------------------------------------------------------------------------I
-----------------------------------------------------------------------------I
-13-13-13-------13-13-15-15-15-12-12-12-13-13-17-(play 10 times & let ring)--I
----------9-9-9--------------------------------------------------------------I
-----------------------------------------------------------------------------I
-----------------------------------------------------------------------------I
-----------------------------------------------------------------------------I




Ваше мнение



Капча