Song Title: Farther Away
Band: Evanescence
Album: Fallen
Year: 2003
This is my first tab...
--“Alice” B.A.V.G.
P.M.- Palm Mute
/ - Slide
: - Let Ring
Standard:
E B G D A E
Intro/Chorus
Guitar 1
|---8-8-8------8---7-7-7------7---5-(10 times, bending gradually)---
|--------5-5-5---5------5-5-5---5-----------------------------------
|-------------------------------------------------------------------
|-------------------------------------------------------------------
|-------------------------------------------------------------------
|-------------------------------------------------------------------
|---8-8-8------8---10-10-10-7-7-7-8-12-(10, times bending gradually)
|--------5-5-5---5--------------------------------------------------
|-------------------------------------------------------------------
|-------------------------------------------------------------------
|-------------------------------------------------------------------
|-------------------------------------------------------------------
Guitar 2
|-------------------------------------------------------
|-------------------------------------------------------
|-------------------------------------------------------
|-------------------------------------------------------
|---0-0-0---2-2-2---2/32 2/5 5-5-5-3-3-3-2-2-2/32-----
|---------0-------0-------------------------------------
|-------------------------------------------------------
|-------------------------------------------------------
|-------------------------------------------------------
|-------------------------------------------------------
|---0-0-0---2-2-2---2/32 2/5 5-5-5-3-3-3-2-2-2---------
|---------0-------0-----------------------------3-3-----
Verse 2 (1:10)
_______P.M______
|-------------------------
|-------------------------
|-------------------------
|---222--22222--2---------
|---000--00000--0---------
|---000--00000--0---------

Bridge (1:53)
Guitar 1
“Feel no-thing”
|--------------------------------------------------
|-------1-0--------1-0--------1-0-------------0----
|-----------2----------2----------2---1----2-------
|-----2----------2----------2----------------------
|---0----------0----------0------------------------
|--------------------------------------------------
Guitar 2
___P.M.__
|--------------------------------------------------
|--------------------------------------------------
|--------------------------------------------------
|---22222222--7:-----------------------------------
|---22222222--7:--3:---3/5:---5/7:-----------------
|---00000000--5:-----------------------------------




Ваше мнение



Капча