-------------------------------------------------------------------------------
EVERYBODY'S FOOL - Evanescence
-------------------------------------------------------------------------------
Tabbed by: Bouf
Email: [email protected]
Tuning: Drop D
INTRO/CHORUS
e|---------------------------------------------------------------------------|
B|---------------------------------------------------------------------------|
G|---------------------------------------------------------------------------|
D|-00--3-00--07h8p7--1010------00--7--00--07h8p7--10---00--7-----------------|
A|-00--3-00--07h8p7--1010------00--7--00--07h8p7--10---00--7-----------------|
D|-00--3-00--07h8p7--1010------00--7--00--07h8p7--10---00--7-----------------|

VERSE 1
e|---------------------------------------------------------------------------|
B|---------------------------------------------------------------------------|
G|---------------------------------------------------------------------------|
D|-00-00--10-}------8-5-7--00--3---------------------------------------------|
A|-00-00--10-}X3----8-5-7--00--3---------------------------------------------|
D|-00-00--10-}------8-5-7--00--3---------------------------------------------|

CHORUS
after the main part of the chorus it does this...
e|---------------------------------------------------------------------------|
B|---------------------------------------------------------------------------|
G|---------------------------------------------------------------------------|
D|-8888887755558877--0--000--000--10-----0--000--000--10---------------------|
A|-8888887755558877--0--000--000--10-----0--000--000--10---------------------|
D|-8888887755558877--0--000--000--10-----0--000--000--10---------------------|

VERSE 2
e|---------------------------------------------------------------------------|
B|---------------------------------------------------------------------------|
G|---------------------------------------------------------------------------|
D|-00-00--10-}------8-5-7--00--3---------------------------------------------|
A|-00-00--10-}X3----8-5-7--00--3---------------------------------------------|
D|-00-00--10-}------8-5-7--00--3---------------------------------------------|

-------------
CHORUS
-------------
QUIET BIT!
-------------
MODIFIED CHORUS
e|---------------------------------------------------------------------------|
B|---------------------------------------------------------------------------|
G|---------------------------------------------------------------------------|
D|-00--0-7h8p7--10--7--8--7h8p7--55------7-888888-7--10--7-------------------|
A|-00--0-7h8p7--10--7--8--7h8p7--55------7-888888-7--10--7-------------------|
D|-00--0-7h8p7--10--7--8--7h8p7--55------7-888888-7--10--7-------------------|
-------------
CHORUS X 4
-------------
END
e|---------------------------------------------------------------------------|
B|---------------------------------------------------------------------------|
G|---------------------------------------------------------------------------|
D|-0--000--00----------------------------------------------------------------|
A|-0--000--00----------------------------------------------------------------|
D|-0--000--00----------------------------------------------------------------|

| / slide up
| slide down
| h hammer-on
| p pull-off
| ~ vibrato
| + harmonic
| x Mute note
===============================================================================




Ваше мнение



Капча